Jean-Jacques Goldman: A nos actes manqués


Généreusement retranscrit par François.
Voici tout d'abord la tablature de l'incontournable " Eh .................... " :

---------------------------------12-----12-----12-----9-----------------------------------12-10-9-
--------------------------------------------------------------------------------------------------
--------------------------------------------------------------9-10-----9--------9--10--9----------
--11----9-11------11--9---------------------------------------------------------------------------
--------------------------------------------------------------------------------------------------

--12-10-9---------12----12----12------12----12-10-12--9---9---9---9-----------11-9----9----9----9-
--------------------------------------------------------------------------------------------------
--------------------------------------------------------------------------------------------------
--------------------------------------------------------------------------------------------------
--------------------------------------------------------------------------------------------------
--------------------------------------------------------------------------------------------------


--11-9-------------------------------------------------9--9---9---------------------9---9---9-----
--------------------------------------------------------------------------------------------------
--------------------------------------------------------------------------------------------------
--------------------------------------------------------------------------------------------------
--------------------------------------------------------------------------------------------------


Voici maintenant la chanson proprement dite :

E     B    C#m   A   E   B   C#m   A      E    B     C#m     A    C#m
Eh ..................................................

E             B              C#m              E
A tous mes loupés
mes ratés
mes vrais soleils
C#m        G#m              F#7            B
Tous les chemins qui me sont passés à côté
E           B            A                   E
A tous mes bateaux manqués
mes mauvais sommeils
F#m7          E              A            A2
A tout ce que je n'ai pas été

E             B               A                  E
Aux malentendus
aux mensonges
à nos silences
C#m        G#m              F#7            B
A tous ces moments que j'avais cru partager
E                B               A                   E
Aux phrases qu'on dit trop vite et sans qu'on les pense
F#m7                E                            A2
A celles que je n'ai pas osées ... oh oh oh...

E     B    C#m   A
A nos actes manqués

E   B   C#m   A  E    B  C#m   A  E  B  C#m  A
Eh .........................................................



E           B            C#m              E
Aux années perdues à tenter de ressembler
C#m        G#m             F#              B
A tous les murs que je n'aurai pas su briser
E           B                 A              E
Tout c'que j'ai pas vu
tout près
juste à côté
F#m7                 E                 A
Tout ce que j'aurai mieux fait d'ignorer.

E              B            A                   E
Au monde
à ses douleurs qui ne me touchent plus
C#m           G#m              F#             B
Aux notes
aux solos que je n'ai pas inventés
E                B                  A                 E
Tous ces mots que d'autres ont fait rimer qui me tuent
F#m7                    E                     A
Comme autant d'enfants jamais portés... eh...
B7
A  nos actes manqués....

E     B    C#m   A   E   B   C#m   A  E    B  C#m   A  E  B  C#m  A
Eh .......................................................................


Solo de synthé :  E   B   C#m   A    (X4)

E            B             A            E
Aux amours échouées de s'être trop aimé
C#m         G#m           F#            B
Visages et dentelles croisés juste frôlés
E            B               A              E
Aux trahisons que j'ai pas vraiment regrettées
A                               E
Aux vivants qu'il aurait fallu tuer

E             B             A               E
A tout ce qui nous arrive enfin mais trop tard
C#m         G#m                F#              B
A tous les masques qu'il aura fallu porter
E            B               A                 E
A nos faiblesses
à nos oublis
nos désespoirs
F#m7               E                     A
Aux peurs impossibles à échanger... eh...
B7
A  nos actes manqués....

E     B    C#m   A   E   B   C#m   A  E    B  C#m   A  E  B  C#m  A
Eh .......................................................................