Jean-Jacques Goldman :En passant


L'auteur de cette retranscription est Etoile3J@aol.com.


Symboles utilisés :



7b(9)   : bend jusqu' à la tonalité de la touche entre parenthèses

7b(13)r : bend jusqu' à la tonalité de la touche entre parenthèses
puis release

7/9     : slide entre les deux touches

/9     : slide sans partir d'une note précise



^       :

!       :picking puis immédiatement après
bend

<9>     : harmonique

???     :Je ne suis pas sûr du passage...



Piano

Do  sol fa mi ré    fa mi

SOL LA  do do ré do LA SOL SOL do ré mi ré

Si  do  ré

Do  Sol fa mi ré fa mi

SOL LA  do do ré mi do fa mi ré



Guitare



e[-----------------------------------------------------------------]

B[-----------------------------------------------------------------]

G[-----------------------------------------------------------------]

D[-----------------------------------------------------------------]

A[-3-(3)/10-8-7-5-8-7--------------------------------------2-3-5-3-]

E[--------------------3-(3)/5-8-8-8/10-8-5-3-3-5-8-10/12-10--------]





4:55

e[----------------------------------------------]

B[----------------------------------------------]

G[----------------------------------------------]

D[----------------------------------------------]

A[-(3)/10-8-7-5-8-7-----------------------8-7-5-]

E[------------------3-(3)/5-8-8-10/12-10--------]





5:04                                       5:12

e[-----------------------------------------------------------------]

B[-----------------------------------------------------------------]

G[-----------------------------------------------------------------]

D[-----------------------------------------------------------------]

A[--3-(3)/10-10-10-10h 12-10-10-8-7-7\8-7-5-5\3-3b-3-3-3-3-3-5/7-5-]

E[-----------------------------------------------------------------]



5:19

e[----------------------------------------------------------]

B[----------------------------------------------------------]

G[----------------------------------------------------------]

D[----------------------------------------------------------]

A[-5/7-5-3-3/10-10-10-10-10-10h 12-10-10-8-7-5-3-5/7-7-7-5--]

E[----------------------------------------------------------]



e[-----------------------------------------------------------------]

B[-----------------------------------------------------------------]

G[-----------------------------------------------------------------]

D[-----------------------------------------------------------------]

-^^^^^-                      -^^^^^^-

A[-10-(8)/10-15-15-15-14-15-17-15-14\12\10-10-10h 12-10-10-8-8-7-7-]

E[-----------------------------------------------------------------]





5:41



e[-----------------------------------------------------------------]

B[-----------------------------------------------------------------]

G[-----------------------------------------------------------------]

D[-----------------------------------------------------------------]

A[-7-7b(8)r--7-5-3h 5-5/7-5-3--(3)/15-14-15-17-17-17h 19-17-15-15--]

E[-----------------------------------------------------------------]



6:00

???????????????????

e[--------------------------------------------------------------------------]

B[--------------------------------------------------------------------------]

G[-------------------------------------------------12----12--12---12--------]

D[----------------------------------------12b(14)-----14---14--14----14--12-]

A[-10-10h 12-15-15/17-19-19-19b(20)r--17------------------------------------]

E[--------------------------------------------------------------------------]



6:15



e[-----------------------------------------------------------------]

B[-----------------------------------------------------------------]

G[-10-10-12-7-12b(13)r--10-10-10-9-7-5-5---10--\10-10-12-14-12-7-9-]

D[-----------------------------------------------------------------]

A[---------------------------------------3-------------------------]

E[-----------------------------------------------------------------]



6:23

e[--------------------------------------------------3--------------------------------]

B[---------------------------------------------------------3-------------------------]

G[10-10-12----------12-12---12-12---12-12----12-12-----12b (14)---12-12-10-9-9b (10)-]

D[---------10---10--------10------10------10-----------------------------------------]

A[-----------------------------------------------------------------------------------]

E[-----------------------------------------------------------------------------------]





6:28

?????

e[-----------------------------------------------------------------]

B[-----------------------------------------------------------------]

G[-9-7-5-7-7/9-7-12-12-7b(9)-7-7-7--7-5-5--7-7b(8)--5-5-5-4--------]

D[---------------------------8-8-8--------5-----------------7-5-5--]

A[---------------------------------------------------------------3-]

E[-----------------------------------------------------------------]





6:50

e[--------------------------------------------------------------------------------]

B[--------------------------------------------------------------------------------]

^ ^

G[-!-!-------------------------------12-12---12-12----12-12----12-12-----12-10-12-]

D[-9-9-10-12-14-12--7-9-10-12-14-12-------10-------10-------10-------10-----------]

A[--------------------------------------------------------------------------------]

E[--------------------------------------------------------------------------------]





e[------------------------------------------------------------------------------]

B[------------------------------------------------------------------------------]

~~~~~                                            ??ou peut-être???

G[-12b(14)---12-12-10-9-9--(9)h 10--7-5-7--(7)/9--9-7--<9>------------12--------]

D[------------------------------------------------------------------------------]

A[--------------------3--]

E[------------------------------------------------------------------------------]


Retour...