Jean-Jacques Goldman : Brouillard



L'auteur de cette retranscription est : Jérôme Pierart
Hier j'ai reecoute le premier album de JJG : C'est vraiment un des
meilleurs
il regorgent de genialite !!!
Bref je me suis appercu que l'arpege de Brouillard pouvait etre joue avec
une seulle guitare. Voici donc la tab de l'intro (en attendant la suite).
C'est vraiment magnifique.

Capo en 2eme case.

+--------0-------+----------------+----------------+----------------
|----------------|0-----0-0-----0-|2-----2-2-----2-|----------------
|1-----1-------1-|----------------|----------------|1-----2-1-----1-
|----2-------2---|---02-0----02-0-|---42-2----42-2-|----2-------2---
|---2--2----2--2-|----------------|0---0---0---0---|---2--2----2--2-
+0---0---0---0---+3---3---3---3---+----------------+0---0---0---0---

+0---------------+----------------+----------------+----------------+-
|----------------|0-----0-0-----0-|2-----2-2-----2-|----------------|-
|------1-1-----1-|----------------|----------------|1-----1-2-----2-|1
|----2-------2---|---02-0----02-0-|---42-2----42-2-|----2-------2---|-
|---2--2----2--2-|----------------|0---0---0---0---|---2--2----2--2-|-
+0---0---0---0---+3---3---3---3---+----------------+0---0---0---0---|0


Retour...