Jean-Jacques Goldman: Jour bizarre


L'auteur de cette retranscription est Grégoire Revel.

Ce morceau est ecoutable sur l'album
Goldman/TaiPhong ou pour les chanceux sur
le 45 Tours original du meme nom.

!! Attention : Capo 2e Case !!

Intro :

Am        Am/G      Am/F#               G4        G
|---------0---------0------------------------------------------|
|-------1---------1-----------1---------1---------1---------0--|
|-----2---------2-----------2---------2---------0---------0----|
|-------------------------2---------2---------0---------0------|
|--0-----------------------------------------------------------|
|------------3---------2---------2---------3---------3---------|



Accompagnement Solo 1  + Couplet 1 :

C         G/B       Am        Am/G      Am/F#               G4
G
|---------0---------0---------0---------0------------------------------------------|
|-------1---------0---------1---------1-----------1---------1---------1---------0--|
|-----0---------0---------2---------2-----------2---------2---------0---------0----|
|---------------------------------------------2---------2---------0---------0------|
|--3---------2---------0-----------------------------------------------------------|
|--------------------------------3---------2---------2---------3---------3---------|



Refrain 1 :

D         D/C#      F6/C      G/B       D         D/C#      F/C
G/B
|---------------------------------------------------------------------1------------|
|---------3---------3---------3---------3---------3---------3-------1-----------3--|
|-------2---------2---------2---------0---------2---------2-------2-----------0----|
|-----0---------0---------3---------0---------0---------0-------------------0------|
|--5---------4---------3---------2---------5---------4---------3---------2---------|
|----------------------------------------------------------------------------------|


D         D/C#      F6/C     G/B        D         Em        F
G
|-----------------------------------------------------------0---------1---------3--|
|---------3---------3---------3---------3---------3-------0---------1---------0----|
|-------2---------2---------2---------0---------2-------0---------2---------0------|
|-----0---------0---------3---------0---------0------2---------3-------------------|
|--5---------4---------3---------2---------5---------------------------------------|
|------------------------------------------------------------------------3---------|


G7        G6        G7
|---------1---------0---------1--|
|-------0---------0---------0----|
|-----0---------0---------0------|
|--------------------------------|
|--------------------------------|
|--3---------3---------3---------|



Couplet 2 : idem que Couplet 1

Refrain 2 : idem que Refrain 1

Couplet 3 : idem que Couplet 1

Solo final : idem que Refrain 1 suivi de Couplet 1 et de Refrain 1

Retour...