Jean-Jacques Goldman: Nos mains



Capo 1ère case.
4 tirets=une croche
Accords donnés avec le capo (baisser d'1/2 ton pour avoir les
positions sur la guitare).

Intro :
Ab                          Eb/Ab                   Ebsus4/Ab
|       |       |       |        |       |       |       |
|--------------------------------|--------------------3-----------|
|------------0---1---0-----------|--------------------------------|
|0-------0-------------------2---|--------------------------------|
|----0-----------------------0---|--------------------------------|
|--------------------------------|--------------------------------|
|3-----------3---------------3---|--------------------------------|

Ab          Absus4         Eb/Ab                    Ebsus4/Ab
|       |       |       |        |       |       |       |
|--------------------------------|--------------------3-----------|
|----0---1---3---1---0-----------|--------------------------------|
|0---------------------------2---|--------------------------------|
|----------------------------0---|--------------------------------|
|--------------------------------|--------------------------------|
|3-----------3---------------3---|--------------------------------|

Fm          Eb/G                 Ab          Db
|       |       |       |        |       |       |       |
|--------------------------------|--------------------------------|
|----------------------------0---|0---1---3---1-------0-----------|
|0-------0---2-----------2-------|------------------------2---0---|
|----0---------------0-----------|--------------------------------|
|--------------------------------|------------3-------------------|
|0-----------2-------------------|3-------------------------------|

Fm          Eb          Dbadd9                        Eb
|       |       |       |        |       |       |       |
|--------------------------------|--------------------3-----------|
|--------0-----------------------|----1-------3-------------------|
|------------2-------0-------0---|--------------------------------|
|------------0-----------4-------|--------------------------------|
|----------------------------3---|--------------------------------|
|0-------------------------------|--------------------------------|

Eb
|       |       |       |
|--------------------2-----------|
|--------------------3-----------|
|--------------------2-----------|
|------------------------0-------|
|--------------------------------|
|--------------------------------|


Début 1er couplet :
Ab               Absus4  Ebsus4/Ab
|--------------------------------|
|0-------0-------1---0-------3---|
|0-------0-------0---0-------2---|
|----0-------0-------------------|
|--------------------------------|
|3---------------3-------3-------|

|       |       |       |
|--------------------------------|
|--------3-----------0-------0---|
|----0---2-----------0-------0---|
|------------0-----------4-------|
|--------------------------------|
|3---------------3---------------|

Ab               Absus4  Ebsus4/Ab
|--------------------------------|
|0-------0-------1---0-------3---|
|0-------0-------0---0-------2---|
|----0-------0-------------------|
|--------------------------------|
|3---------------3-------3-------|

Couplet
Ab              Absus4      Ebsus4/Ab
|       |       |       |        |       |       |       |
|--------------------------------|--------------------------------|
|--------3-----------0-------0---|0-------0-------1---0-------3---|
|----0---2-----------0-------0---|0-------0-------0---0-------2---|
|------------0-----------4-------|----0-------0-------------------|
|--------------------------------|--------------------------------|
|3---------------3---------------|3---------------3-------3-------|
Sur une armeles doigts noués

Ab              Absus4      Ebsus4/Ab
|       |       |       |        |       |       |       |
|--------------------------------|--------------------------------|
|--------3-----------0-------0---|--------0-------1-------1---3---|
|--------2-----------0-------0---|--------0-------0-------0---2---|
|----0-------0-----------4-------|----0-------0-------0-----------|
|--------------------------------|--------------------------------|
|3---------------3---------------|3---------------3---------------|
pour agresser serrerlespoings

Ab              Absus4      Ebsus4/Ab
|       |       |       |        |       |       |       |
|--------------------------------|--------------------------------|
|--------3-----------0-------0---|--------0-------1-------1---3---|
|--------2-----------0-------0---|--------0-------0-------0---2---|
|----0-------0-----------4-------|----0-------0-------0-----------|
|--------------------------------|--------------------------------|
|3---------------3---------------|3---------------3---------------|
Maisnos paumessontpour  aimer

Fm             Db       Ebsus4
|       |       |       |        |       |       |       |
|--------------------------------|--------------------------------|
|--------3-------------------0---|--------0---------------1-------|
|--------2-----------0-------0---|--------0---------------0---0---|
|----0-------0-----------4-------|----2-------0-------2-----------|
|--------------------------------|----------------3---------------|
|3---------------3---------------|0-------------------------------|
Y'apas d'caresses    en fermant  les    mains

|       |       |       |
|--------3-----------2-----------|
|--------3-----------3-----------|
|----2-------2-----------2-------|
|0---------------0-----------0---|
|--------------------------------|
|--------------------------------|

Recommencer ensuite une fois à partir de Couplet

Puis refrain :

Ab              Absus4    Ebsus4/Ab
|       |       |       |        |       |       |       |
|--------------------------------|--------------------------------|
|0-------0-------1---0-------3---|--------3---3-------0-------0---|
|0-------0-------0---0-------2---|--------0---2-------0-------0---|
|----0-------0-------------------|----0-------------------4-------|
|--------------------------------|--------------------------------|
|3-------3-------3-------3-------|3-------3-------3---------------|
Quand onouvre nos mains

Ab              Absus4    Ebsus4/Ab
|       |       |       |        |       |       |       |
|--------------------------------|--------------------------------|
|0-------0-------1---0-------3---|--------3---3-------0-------0---|
|0-------0-------0---0-------2---|--------0---2-------0-------0---|
|----0-------0-------------------|----0-------------------4-------|
|--------------------------------|--------------------------------|
|3-------3-------3-------3-------|3-------3-------3---------------|
Il suffitde riendix foisrien

Fm               Eb/G             Ab              Db
|       |       |       |        |       |       |       |
|--------------------------------|--------------------------------|
|--------0---------------3-------|--------0---------------1-------|
|--------0---------------2-------|--------0---------------0-------|
|----2-------2-------0-------0---|----0-------0-------2-------2---|
|--------------------------------|----------------3---------------|
|0---------------2---------------|3-------------------------------|
suffitd'uneou deux secondes à  peineun gesteun autre  monde

|       |       |       |        |       |       |       |
|------------------------2-------|------------3-------3-----------|
|--------0---------------3-------|--------3---------------3-------|
|--------0-----------2-------2---|----0-----------------------0---|
|----2-------2---0---------------|--------------------------------|
|--------------------------------|3---------------3---------------|
|0-------------------------------|--------------------------------|
Quandon ouvre  nos mains
|       |       |       |
|------------3-------3-----------|
|--------3-----------3-----------|
|----0---------------2-----------|
|--------------------0-----------|
|3-------------------------------|
|--------------------------------|

Couplet 2 : idem couplet 1

Puis changement de tonalité :

B               Bsus4   F#sus4/B
|       |       |       |        |       |       |       |
|--------------------------------|--------------------------------|
|--------3-------4-------4---1---|------------1-------------------|
|--------3-------3-------3---3---|--------3-----------3---2---3---|
|----3-------3-------3-----------|----3---------------------------|
|1---------------1---------------|1---------------1---------------|
|--------------------------------|--------------------------------|
Etdesongles faitspourgriffer

B               Bsus4   F#sus4/B
|       |       |       |        |       |       |       |
|--------------------------------|--------------------------------|
|--------3-------4-------4---1---|------------1-------------------|
|--------3-------3-------3---3---|--------3-----------3---2---3---|
|----3-------3-------3-----------|----3---------------------------|
|1---------------1---------------|1---------------1---------------|
|--------------------------------|--------------------------------|
Poussentauboutdumauvais côté

B               Bsus4   F#sus4/B
|       |       |       |        |       |       |       |
|--------------------------------|--------------------------------|
|--------3-------4-------4---1---|------------1-----------1-------|
|--------3-------3-------3---3---|--------3---------------3-------|
|----3-------3-------3-----------|----3---------------3-------0---|
|1---------------1---------------|1---------------1---------------|
|--------------------------------|--------------------------------|
Celuiqui menace  ou  désigne                      De l'autre on

G#m             E                F#sus4
|       |       |       |        |       |       |       |
|--------------------------------|--------------------------------|
|--------3---------------4-------|--------1---------------1-------|
|--------3---------------3-------|--------3---------------3-------|
|----5-------0-------5-------0---|----3-------3-------3-------3---|
|----------------6---------------|--------------------------------|
|3-------------------------------|1---------------1---------------|
livre  nos vies dans    deslignes


Refrain 2 :
B               Bsus4  F#sus4/B
|       |       |       |        |       |       |       |
|--------------------------------|--------------------------------|
|--------3-------4---3-------1---|------------1-------------------|
|----3---3-------3---3-------3---|--------3-----------3---2---3---|
|------------3-------------------|----3---------------------------|
|1-------1-------1-------1-------|1---------------1---------------|
|--------------------------------|--------------------------------|
Quand onouvre nos mains

B               Bsus4  F#sus4/B
|       |       |       |        |       |       |       |
|--------------------------------|--------------------------------|
|--------3-------4---3-------1---|------------1-------------------|
|----3---3-------3---3-------3---|--------3-----------3---2---3---|
|------------3-------------------|----3---------------------------|
|1-------1-------1-------1-------|1---------------1---------------|
|--------------------------------|--------------------------------|
Il suffitde riendix foisrien

G#m             F#/A#            B               E
|       |       |       |        |       |       |       |
|--------------------------------|--------------------------------|
|--------3---------------1-------|--------3---------------4-------|
|--------3---------------2-------|--------3---------------3-------|
|----5-------0-------3-------3---|----3-------0-------5-------0---|
|----------------0---------------|1---------------6---------------|
|3-------------------------------|--------------------------------|
suffitd'uneou deux secondes à  peineun gesteun autre  monde

G#m             F#sus4           Dbadd9  Ebsus4
|       |       |       |        |       |
|--------------------------------|--------1--------|
|--------3---------------1-------|4-------1--------|
|--------3---------------3-------|3-------3--------|
|----5-------0-------3-------0---|5-------3--------|
|--------------------------------|6----------------|
|3---------------1---------------|-----------------|
Quandon ouvre  nos mains oh  oh  oh

Reprise de Refrain 2

Puis final :

E                                E               F#sus4
|       |       |       |        |       |       |       |
|--------------------------------|--------------------------------|
|--------4---------------4-------|--------4---------------4-------|
|--------3---------------3-------|--------3---------------3-------|
|----5-------5-------5-------5---|----5-------5-------5-------0---|
|6---------------6---------------|6---------------6---------------|
|--------------------------------|--------------------------------|
oh  oh  oh      oh  oh  oh       oh  oh  quandon ouvre  nos

B                   Badd9        Bsus4
|       |       |       |        |       |       |       |
|--------------------------------|--------------------------------|
|3-------------------1-----------|4-------------------------------|
|3-------------------3-----------|3-------------------------------|
|3-------------------3-----------|3-------------------------------|
|1-------------------1-----------|1-------------------------------|
|--------------------------------|--------------------------------|
mains

B                                Eadd2
|       |       |       |        |       |       |       |
|--------------------------------|--------------------------------|
|3-------------------------------|3-------------------------------|
|3-------------------------------|3-----------------------3-------|
|3-------------------------------|3-------------------3-----------|
|1-------------------------------|6---------------6---------------|
|--------------------------------|--------------------------------|

B
|       |       |       |
|--------------------------------|
|3-------------------------------|
|3-------------------------------|
|3-------------------------------|
|1-------------------------------|
|--------------------------------|

Commentaires bienvenus : brunot.pascal@wanadoo.fr