Jean-Jacques Goldman :En passant


L'auteur de cette retranscription est Maunakea. Visitez son site !

Un bon morceau
avec une ligne de basse très sympa !
Du Goldman tout craché...


Accords utilisés :

C	:X32010
F/A	:X03211
G/B	:XB0033
Am	:X02210
G6	:320000
F	:133211
Gsus4 	:3x0013
G	:3X0003
Dm7	:XX0211
C/E	:XX2010
Cm	:X35543
Bb6	:X13333
Ab	:466544
Eb	:X5777X
Fm	:133111
Ddim	:XX0101
F	:133211
F/G	:333211



intro : (une seule note: C (basse))

C           F/A         G/B     C
Toutes les ébènes ont rendez-vous

Am          G6            F        Gsus4  G
Lambeaux de nuit quand nos ombres s'éteignent...
Am             F/A        G/B      C
Des routes m'emmènent
je ne sais où.
Dm7                C/E      Am        Gsus4 G
J'avais les yeux perçants avant
je voyais tout...

C            F/A        G/B     C
Doucement reviennent
à pas de loup

Am          G6           F      Gsus4  G
Reines endormies
nos déroutes anciennes

Am              F/A        G/B        C
Coulent les fontaines jusqu'où s'échouent
Dm7             C/E            Am        Gsus4 G
Les promesses éteintes et tous nos voeux dissous...

Am          G6            F           C
C'était des ailes et des rêves en partage

Am          G6          F      Gsus4 G
C'était des hivers et jamais le froid

Cm           Bb6           Ab       Eb
C'était des grands ciels épuisés d'orages.
Fm          Cm      Ddim       Gsus4 G    F F/G
C'était des paix que l'on ne signait pas.

C           F/A         G/B       C
Des routes m'emmènent
je ne sais où
Dm7        C/E                  Am   G        F      F/G
J'ai vu des oiseaux
des printemps
des cailloux
C
En passant


C            F/A     G/B                  C
-----------------------------------------------------------
-----------------------------------------------------------
-----------------------------------------------------------
----------10-10------12-10-12-b(14)br(12)-10-10------------
--10-h-12--------------------------------------------------
-----------------------------------------------------------

Am	    G6					Gsus4 G
-----------------------------------------------------------
-----------------------------------------------------------
-------------12-12-12-h-14-po-12---------------------------
--(12)sl-14-------------------------12-sl--14-12-----------
-----------------------------------------------------------
-----------------------------------------------------------

C           F/A         G/B     C
Toutes nos défaites ont faim de nous
Am          G6            F        Gsus4  G
Serments résignés sous les maquillages
Am             F/A        G/B      C
Lendemains de fête
plus assez saouls
Dm7                C/E      Am        Gsus4 G
Pour avancer
lâcher les regrêts trop lourds


Am          G6            F           C
Déjà ces lents
ces tranquilles naufrages
Am          G6          F      Gsus4 G
Déjà ces cages qu'on n'attendait pas
Cm           Bb6           Ab       Eb
Déjà ces discrets manques de courage
Fm          Cm      Ddim       Gsus4 G    F F/G
Tout ce qu'on ne sera jamais
déjà

C           F/A         G/B       C
J'ai vu des bateaux
des fleurs
des rois
Dm7        C/E                  Am   G        F      F/G
Des matins si beaux
j'en ai cueilli parfois Mmmm
C
En passant

C            F/A     G/B                  C
-----------------------------------------------------------
-----------------------------------------------------------
-----------------------------------------------------------
----------10-10------12-10-12-b(14)br(12)-10-10------------
--10-h-12--------------------------------------------------
-----------------------------------------------------------

Am		    G(6)
-----------------------------------------------------------
-----------------------------------------------------------
----------------------------------12--12-------------------
----------10-10------12--12sl-14---------------------------
--10-h-12--------------------------------------------------
-----------------------------------------------------------
Gsus4 G
-----------------------------------------------------------
---15 b(17)-(15)-------------------------------------------
-----------------------------------------------------------
-----------------------------------------------------------
-----------------------------------------------------------
-----------------------------------------------------------

Reprise au piano

Retour...