Jean-Jacques Goldman : Lisa



L'auteur de cette retranscription est Grégoire Revel.
Voici un magnifique morceau de JJG issu de la BO
de l'Union Sacree.
Il n'y a pas de difficultees dans ces arpeges.
Pour les debutants
je leur suggere de ne placer que
les doigts 'utiles' et
sur l'arpege de F
de jouer le
Fa grave en appuyant avec la main droite sur la 1ere
case de la corde de Mi grace au Pouce. Ca tire un peu
au debut mais c'est tres pratique. D'ailleurs JJG
joue comme cela.


Intro et Couplets :

C              G              F              C              F
|---------------|--------------|--------------|--------------|---------------|
|--------1~-----|-------0~-----|--------------|-------1~-----|---------------|
|------0----0~~-|-----0----0~~-|-------2~-----|-----0----0~~-|-------2~------|
|----2----------|---0----------|-----3----3~~-|---2----------|-----3----3~~--|
|--3------------|-2------------|---3----------|-3------------|---3-----------|
|---------------|--------------|-1------------|--------------|-1-------------|


C              F              G
|---------------|--------------|--------------|
|--------1~-----|--------------|-------0~-----|
|------0----0~~-|-------2~-----|-----0----0~~-|
|----2----------|-----3----3~~-|---0----------|
|--3------------|---3----------|--------------|
|---------------|-1------------|-3------------|


C              G              F              C              F
|---------------|--------------|--------------|--------------|---------------|
|--------1~-----|-------0~-----|--------------|-------1~-----|---------------|
|------0----0~~-|-----0----0~~-|-------2~-----|-----0----0~~-|-------2~------|
|----2----------|---0----------|-----3----3~~-|---2----------|-----3----3~~--|
|--3------------|-2------------|---3----------|-3------------|---3-----------|
|---------------|--------------|-1------------|--------------|-1-------------|


C              G              G              F               F
|---------------|--------------|--------------|---------------|---------------|
|--------1~-----|-------0~-----|-------0~-----|-------1~------|-------1~------|
|------0----0~~-|-----0----0~~-|-----0----0~~-|-----2----2~~--|-----2----2~~--|
|----2----------|---0----------|---0----------|---3-----------|---3-----------|
|--3------------|--------------|--------------|---------------|---------------|
|---------------|-3------------|-3------------|-1-------------|-1-------------|


Fm              Fm
|----------------|---------------|
|--------1~------|-------1~------|
|------1----1~~--|-----1----1~~--|
|----3-----------|---3-----------|
|----------------|---------------|
|--1-------------|-1-------------|



Pont (partie musicale avec le piano) :

C              G              F              C              Am
|---------------|--------------|--------------|--------------|---------------|
|--------1~-----|-------0~-----|--------------|-------1~-----|-------1~------|
|------0----0~~-|-----0----0~~-|-------2~-----|-----0----0~~-|-----2----2~~--|
|----2----------|---0----------|-----3----3~~-|---2----------|---2-----------|
|--3------------|-2------------|---3----------|-3------------|-0-------------|
|---------------|--------------|-1------------|--------------|---------------|


G              F              G
|---------------|--------------|--------------|
|--------0~-----|--------------|-------0~-----|
|------0----0~~-|-------2~-----|-----0----0~~-|
|----0----------|-----3----3~~-|---0----------|
|---------------|---3----------|--------------|
|--3------------|-1------------|-3------------|


C              G              F              C              Am
|---------------|--------------|--------------|--------------|---------------|
|--------1~-----|-------0~-----|--------------|-------1~-----|-------1~------|
|------0----0~~-|-----0----0~~-|-------2~-----|-----0----0~~-|-----2----2~~--|
|----2----------|---0----------|-----3----3~~-|---2----------|---2-----------|
|--3------------|-2------------|---3----------|-3------------|-0-------------|
|---------------|--------------|-1------------|--------------|---------------|


G              F              F              G#
|--------3------|--------------|--------------|-----------4-----|
|------3---3~~--|-------1~-----|-------1~-----|---------4---4---|
|----0----------|-----2----2~~-|-----2----2~~-|-------5-------5-|
|---------------|---3----------|---3----------|-----6-----------|
|---------------|--------------|--------------|---6-------------|
|--0------------|-1------------|-1------------|-4---------------|


Bb
|------------6-----|      Ou alors pour ceux qui aiment se faire mal au doigts
|----------6--6----|      voici un arpege qui sonnent 'mieux' pour les 2 derniers
|--------7------7--|      accords :
|------8-----------|
|----8-------------|          G#                Bb
|--6---------------|       |------------3-----|-----------5------|
|----------1---1---|---------3---3----|
|--------1-------1-|-------3-------3--|
|------1-----------|-----3------------|
|----3-------------|---5--------------|
|--4---------------|-6----------------|


Accord final : C

Retour...