Jean-Jacques Goldman : Quelque chose de bizarre


L'auteur de cette retranscription est Grégoire Revel.

Quelque chose de bizarre (Jean-Jacques Goldman)


^ : Hammer ou Pulling-Off entre les 2 notes adjacentes.
s : Glisser entre les 2 notes adjacentes.
b : Bend ou ReleaseBend entre les 2 notes adjacentes.
$ : Jouer l'accord en dessous en égrénant les notes.

Couplet 1 :

C                   D
$                   $
|--------0-------------------2------------------|
|--------1-------------------3------------------|
|--------0-------------------2------------------|
|--------2-------------------0------------------|
|--------3--------------------------------------|
|-----------------------------------------------|
C'etait mois de novembre le samedi 17 au soir


C
Em                                                             $
|----------0---------------------------------------------------0-------------------|
|------3s5---4s5---3-0-----------------------------------------1-------------------|
|----------------------3-2-0---2-0-----------------------------0-------------------|
|----------------------------2-----2-0-0^2^0^2^0^2-------------2-------------------|
|--------------------------------------------------------------3-------------------|
|--0-------------------------------------------------------------------------------|
Dans ces coins
de legende ou


E                        G                        C             B7
$                        $                        $             $
|-----2--------------------------------3-3-3--------------------------1--|
|-----3----------------------------2^3-3-3-3------------1-------------0--|
|-----2------------------------0------------------------0-------------2--|
|-----0------------------------0------------------------2-------------1--|
|------------------------------2----------------------3-------------2----|
|------------------------------3-----------------------------------------|
les trains ne menent nulle part              la chaleur etait pesante


Em                   Em/C#               C
D
$                                        $
$
|-------------0----------------------------0~~------------------------------2----|
|-------------0--------------------------0~~-----------1--------------------3----|
|-------------0------------------------0~~-------------0--------------------2----|
|-------------2----------------------2~~---------------2--------------------0----|
|----------------------------------4~~-----------------3-------------------------|
|--------------------------------------------------------------------------------|
et le vent chaud incite a boire              je suis descendu fourbu
tout seul


Em
|---------------------------0--------------------------------------------|
|--------------------0----5---3s5----3-0---------------------------------|
|--------------------2s4-----------------3-2-0----2-0-----------------0--|
|----------------------------------------------2------2-0-------------2--|
|---------------------------------------------------------0^2-0----------|
|------------------0--------------------------------------------3-2-0----|
a la petite gare



Refrains : (Tous les accords sont joues en Palm-Muting cad bloques au
chevalet)

C                        D                          D5 E5
C5 E5
|-----------------------------------------------------------------------------|
|-----------------------------------------------------------------------------|
|--------------------------------2--2--2--2--2--2--2--2-----7--7s9----7--7s9--|
|-------2--2--2--2--2--2--2--2---0--0--0--0--0--0--0--0-----7--7s9----7--7s9--|
|-------3--3--3--3--3--3--3--3------------------------------5--5s7----5--5s7--|
|-----------------------------------------------------------------------------|
Il y avait qque chose dans l'air
qque chose de bizarre


C                        D                             D5 E5
C5 E5
|--------------------------------------------------------------------------------|
|--------------------------------------------------------------------------------|
|--------------------------------2--2--2--2--2--2--2--2--------7--7s9----7--7s9--|
|-------2--2--2--2--2--2--2--2---0--0--0--0--0--0--0--0--------7--7s9----7--7s9--|
|-------3--3--3--3--3--3--3--3---------------------------------5--5s7----5--5s7--|
|--------------------------------------------------------------------------------|
le silence pesant des enfants
qui jouaient sur les trottoirs


C                        D                          D5 E5
C5 E5
|-----------------------------------------------------------------------------|
|-----------------------------------------------------------------------------|
|--------------------------------2--2--2--2--2--2--2--2-----7--7s9----7--7s9--|
|-------2--2--2--2--2--2--2--2---0--0--0--0--0--0--0--0-----7--7s9----7--7s9--|
|-------3--3--3--3--3--3--3--3------------------------------5--5s7----5--5s7--|
|-----------------------------------------------------------------------------|
les vieux assis...    bancs avec leurs droles de regards

C                        D                             Em
$ <- a
egrener ds l'autre
|--------------------------------------------------------------0------0------0--|
sens
|--------------------------------------------------------------0-----0---3s5----|
|--------------------------------2--2--2--2--2--2--2--2--------0----0-----------|
|-------2--2--2--2--2--2--2--2---0--0--0--0--0--0--0--0--------2---2------------|
|-------3--3--3--3--3--3--3--3---------------------------------2--2-------------|
|--------------------------------------------------------------0-0--------------|
qui brillaient etrangement sans rien fixer ni sans rien voir


Couplet 2 :

C                     D                        Em
$                     $
|------------------------------------------2-----------------------------0--|
|--------------------1---------------------3--------------------------------|
|--------------------0---------------------2--------------------------------|
|--------------------2---------------------0--------------------------------|
|--------------------3------------------------------------------------------|
|-------------------------------------------------------------------0~------|
C'etait comme si les femmes et les hommes avaient fui tout a coup


C                      D                    G
$                      $                    $
$
|----------------------------2--------------------3-3----------------------3--|
|-----1----------------------3--------------------3------------------------0--|
|-----0----------------------2--------------------0----2b3-2-0-2-0------0--0--|
|-----2----------------------0--------------------0-----------------0^2----0--|
|-----3--------------------------------------------------------------------2--|
|--------------------------------------------------------------------------3--|
Un rayon de lune eclairait une oree dans la foret


C               B7                     Em            Em/C#
$               $                    $
|----------------------------2------------------------------------------0~~--|
|------------1---------------0----------------------------------------0~~----|
|------------0---------------2--------------------------------------0~~------|
|------------2---------------1--------------------2---------------2~~--------|
|----------3---------------2----------------------2-------------4~~----------|
|--------------------------------------0~~~-------0--------------------------|
Le chemin sentait la menthe
brume blanche jusqu'a mes genoux


C                              D
$                              $
|--------------------------------------------2-----------------------|
|-------------1------------------------------3-----------------------|
|-------------0------------------------------2-----------------------|
|-------------2------------------------------0-----------------------|
|-------------3------------------------------------------------------|
|--------------------------------------------------------------------|
Quand j'ai entendue plus loin leurs chants graves qui me guidaient


Em
|-------0----0------0------0----------|
|-----0-2s3--2-0----3s5-5--3-0--------|
|------------------------------2-0----|
|----------------2-----------------2--|
|-------------------------------------|
|--0----------------------------------|



Refrain : Idem que le precedent sauf fin :


Em
|--0---0----3-4-5-4-3-----------------------------------------------|
|--3s5---5------------5-3^5^3--3-0----------------------------------|
|----------------------------------3-2-0-----2-1-0------------------|
|----------------------------------------2-0-------2-------------2--|
|----------------------------------------------------0^2-0-------2--|
|----------------------------------------------------------3b4-2-0--|

Couplet 3 :


C                          D                               Em
$                          $
|---------------------------------2-----------------------------------------|
|------1--------------------------3-----------------------------------------|
|------0--------------------------2-----------------------------------------|
|------2--------------------------0-------------------------------------2---|
|------3----------------------------------------------------------------2---|
|-----------------------------------------------------------------0-3b4-----|
Ils etaient rassembles autour d'un grand trou vide et tou noir


C                      D                                  G
$                      $
|------------------------------2----------------------------------3--|
|-------1----------------------3----------------------------------3--|
|-------0----------------------2----------------------------------0--|
|-------2----------------------0----------------------------------0--|
|-------3------------------------------------------------------------|
|-----------------------------------------------------------------3--|
Ils se balancaient en chantant
les mains tendus vers le maitre


C_____ accord "violent" :-))
Em/C#
/               B7 $
|------------------------------1----------------------------------------------0~~--|
|-----------1------------------0--------------------------------------------0~~----|
|-----------0------------------2------------------------------------------0~~------|
|-----------2------------------1----------------------------------------2~~--------|
|-----------3----------------2----------------------------------------4~~----------|
|---------------------------------------------0~~~---------------------------------|
Soudain tout cessa brusquement et son doigts montra juste ma cachette


C                           D
$                           $
|-----------------------------------2---------------------------|
|-------1---------------------------3---------------------------|
|-------0---------------------------2---------------------------|
|-------2---------------------------0---------------------------|
|-------3-------------------------------------------------------|
|---------------------------------------------------------------|
Venez nous vous attendions ce soir vous n'etes pas en retard


Em
|------0----0----3s5-3s5-3s5-3s5--|
|----0-2s3--5-3--3s5-3s5-3s5-3s5--|
|---------------------------------|
|---------------------------------|
|---------------------------------|
|--0------------------------------|


2x Refrain : Idem que le precedent

Fin :

Em                                                     $
|----0--0---0-----0---------------------------------------0---3s5s3--|
|----0--3s5---3b5~---3-0----------------------------------0---3s5s3--|
|------------------------3-2-0----------------------------0----------|
|------------------------------2-0------------------------2----------|
|----------------------------------0-2-------------------------------|
|--0-----------------------------------3b4~~-2~~-1~~-0~~~------------|


Retour...