Jean-Jacques Goldman: Sache que je


L'auteur de cette retranscription est Grégoire Revel.


Intro :

   Em
|----------------------------------------------------------|
|----------------------------------------------------------|
|----------------------------------------------------------|
|----------------------------------------------------------|
|--7-----7~~-----7-----7~~-----7-----7~~-----7-----7~~-----|
|------0-------------0-------------0-------------0---------|


  E5                 E5/D              A5/C#             C5         
(x2)
|------------------------------------------------------------------------|
|------------------------------------------------------------------------|
|------------------------------------------------------------------------|
|---------9-----9-----------9-----9-----------7-----7-----------5-----5--|
|--7------7--7--7----5------5--5--5----4------4--4--4----3------3--3--3--|
|------0-----------------0-----------------0-----------------0-----------|

Extrait sonore : couplet Ne correspond pas tout à fait à la tablature et un peu trop rapide...
Couplets :

  E5                 E5/D              A5/C#         C5
|----------------------------------------------------------------------|
|----------------------------------------------------------------------|
|----------------------------------------------------------------------|
|---------9-----9-----------9-----9-----------7------------5--5-----5--|
|--7------7--7--7----5------5--5--5----4------4--4---3-----3--3-----3--|
|------0-----------------0-----------------0------------0--------0-----|


  E5                 E5/D              A5/C#     C5
|---------------------------------------------------------------------|
|---------------------------------------------------------------------|
|---------------------------------------------------------------------|
|---------9-----9-----------9-----9-----------7----------5---5--5--5--|
|--7------7--7--7----5------5--5--5----4------4---3------3---3--3--3--|
|------0-----------------0-----------------0----------0---------------|


  E5                 E5/D              A5/C#                     C5
|-----------------------------------------------------------------------------------|
|-----------------------------------------------------------------------------------|
|-----------------------------------------------------------------------------------|
|---------9-----9-----------9-----9-----------7---7~--7~--7~~~---5----5-----5----5--|
|--7------7--7--7----5------5--5--5----4------4---4~--4~--4~~~---3----3-----3----3--|
|------0-----------------0-----------------0------------------------0-----0----0----|


       B5
|-------------------------------|
|-------------------------------|
|-------------------------------|
|------4~---4--4--4----4--4--4--|
|------2~---2--2--2----2--2--2--|
|--0----------------------------|


  E5                 E5/D              A5/C#         C5
|----------------------------------------------------------------------|
|----------------------------------------------------------------------|
|----------------------------------------------------------------------|
|---------9-----9-----------9-----9-----------7------------5--5-----5--|
|--7------7--7--7----5------5--5--5----4------4--4---3-----3--3-----3--|
|------0-----------------0-----------------0------------0--------0-----|


  E5                 E5/D              A5/C#     C5
|---------------------------------------------------------------------|
|---------------------------------------------------------------------|
|---------------------------------------------------------------------|
|---------9-----9-----------9-----9-----------7----------5---5--5--5--|
|--7------7--7--7----5------5--5--5----4------4---3------3---3--3--3--|
|------0-----------------0-----------------0----------0---------------|


  E5                 E5/D              A5/C#                     C5
|-----------------------------------------------------------------------------------|
|-----------------------------------------------------------------------------------|
|-----------------------------------------------------------------------------------|
|---------9-----9-----------9-----9-----------7---7~--7~--7~~~---5----5-----5----5--|
|--7------7--7--7----5------5--5--5----4------4---4~--4~--4~~~---3----3-----3----3--|
|------0-----------------0-----------------0------------------------0-----0----0----|


   B5          B5/A              B5/G       B5/F#
|-------------------------------------------------------------|
|-------4-----------4-----4----------4----------4-----4-4-----|
|-------4-----------4-----4----------4----------4-----4-4-----|
|--4~---4--4---4~---4--4--4--4-------4----------4-----4-4-----|
|--2~------2---0~------0-----0---x------x---x------x-------x--|
|--------------------------------3~-----3---2~-----2-------2--|



Refrains :

   Em          C             Am            B4        B
|----------------------------0~---0-0------------------|
|------8-------5~---5-5-5----1~---1-1----5~--5-5---4~--|
|------9--9----5~---5-5-5----2~---2-2----4~--4-4---4~--|
|------9--9----5~---5-5-5----2~---2-2----4~--4-4---4~--|
|--7~--7--7----3~---3-3-3----0~---0-0----2~--2-2---2~--|
|--0~-----0--------------------------------------------|

Extrait sonore : pont+refrain Mêmes remarques...

Pendant le solo jouer le refrain :

Em - C - Am - B4 - B

Avec de temps en temps une nuance :

Em - D - G - C - Am - B


Retour...