Jean-Jacques Goldman: Doux


L'auteur de cette retranscription est Grégoire Revel.

Extrait sonore : intro
Des positions pas banales mais qui ne sont pas tres dures.

Intro :

  Em
|--------------------------------------------------|
|--------0--------0-----------0-----------0--------|
|-----0--------0-----0-----0-----0-----0-----0-----|
|--------------------------------------------------|
|--------------------------------------------------|
|--0--------2-----------3-----------2-----------0--|


|--------------------------------------------------|
|--------0--------0-----------0-----------0--------|
|-----0--------0-----0-----0-----0-----0-----------|
|--------------------------------------------------|
|--------------------------------------------------|
|--0--------2-----------3-----------2--------0-----|


Couplets

   Am7                     D9                     GM7
|--5-----5--5-----5--5-----5--5--5--5-----5-------3-----3--2-----3--3-----|
|--5-----5--5-----5--5-----5--5--5--5-----5-------3-----3--3-----3--3-----|
|--5-----5--5-----5--5-----5--5--5--5-----5-------5-----5--5-----5--5-----|
|--5-----5--5-----5--5-----4--4--4--4-----4-------4-----4--4-----4--4-----|
|--7-----7--7-----7--7-----5--5--5--5-----5-------4-----4--4-----4--4-----|
|--5-----5--5-----5--5----------------------------3-----3--3-----3--3-----|
      C'est pas moi...     des plans                 De loup garou...

   CM7                   F#m7                   B9b
|---------------------------------------------------------------------|
|--3-------1-----0-------2-------0--------0-----1-------0-------------|
|--0-------0-----0-------2-------2-----2--2-----2-------2-----2-------|
|--2-------2-----2-------2-------2-----2--------1-------1-----1-------|
|--3-------3-----3-------x-------x--------------2-------2-----2-------|
|------------------------2-------2------------------------------------|
   ...mechant              S'il faut..          vous plaise     
malaise


  Em
|-----------------------------------------------|
|--------0--------0-----------0-----------0-----|
|-----0--------0-----0-----0-----0-----0--------|
|-----------------------------------------------|
|-----------------------------------------------|
|--0--------2-----------3-----------2--------0--|



   Am7                     D9                     GM7
|--5-----5--5-----5--5-----5--5--5--5-----5-------3-----3--2-----3--3-----|
|--5-----5--5-----5--5-----5--5--5--5-----5-------3-----3--3-----3--3-----|
|--5-----5--5-----5--5-----5--5--5--5-----5-------5-----5--5-----5--5-----|
|--5-----5--5-----5--5-----4--4--4--4-----4-------4-----4--4-----4--4-----|
|--7-----7--7-----7--7-----5--5--5--5-----5-------4-----4--4-----4--4-----|
|--5-----5--5-----5--5----------------------------3-----3--3-----3--3-----|
     J'vous aimerai..      sueur                     Genre Stakha....

   CM7                   F#m7                   B9b
|---------------------------------------------------------------------|
|--3-------1-----0-------2-------0--------0-----1-------0-------------|
|--0-------0-----0-------2-------2-----2--2-----2-------2-----2-------|
|--2-------2-----2-------2-------2-----2--------1-------1-----1-------|
|--3-------3-----3-------x-------x--------------2-------2-----2-------|
|------------------------2-------2------------------------------------|
   ...bonheur              La voix...           heureuse ?       horreur

  Em
|-----------------------------------------------|
|--------0--------0-----------0-----------0-----|
|-----0--------0-----0-----0-----0-----0--------|
|-----------------------------------------------|
|-----------------------------------------------|
|--0--------2-----------3-----------2--------0--|


   Am7                     D9                     GM7
|--5-----5--5-----5--5-----5--5--5--5-----5-------3-----3--2-----3--3-----|
|--5-----5--5-----5--5-----5--5--5--5-----5-------3-----3--3-----3--3-----|
|--5-----5--5-----5--5-----5--5--5--5-----5-------5-----5--5-----5--5-----|
|--5-----5--5-----5--5-----4--4--4--4-----4-------4-----4--4-----4--4-----|
|--7-----7--7-----7--7-----5--5--5--5-----5-------4-----4--4-----4--4-----|
|--5-----5--5-----5--5----------------------------3-----3--3-----3--3-----|
      Genre australien...  sable chaud               Surf sur...

   CM7                   F#m7                   B9b
|---------------------------------------------------------------------|
|--3-------1-----0-------2-------0--------0-----1-------0-------------|
|--0-------0-----0-------2-------2-----2--2-----2-------2-----2-------|
|--2-------2-----2-------2-------2-----2--------1-------1-----1-------|
|--3-------3-----3-------x-------x--------------2-------2-----2-------|
|------------------------2-------2------------------------------------|
     sel sur...            Grand les...        biscottos            zero

  C7/7M                   B7
|--------------3-----------------------2------|
|-----------0-----0----------------0----------|
|--------3-----------3----------2-------------|
|-----2----------------------1----------------|
|--3----------------------2-------------------|
|---------------------------------------------|
                                          Mais je se-


Refrains :

   Em7                      B9b                      Em7
|-------------------------|------------------------|-------------------------|
|--------3--------1-------|-1--------0-----------0-|-------3--------1--------|
|--------0--------0-----0-|-------2-----------2----|-------0--------0-----0--|
|-----2-----2--------2----|----1-----------1-------|----2-----2--------2-----|
|-------------------------|-2-----------2----------|-------------------------|
|--0-----------0----------|------------------------|-0-----------0-----------|
-rai                   doux                 Comme un..              
...cou

   E7(5#)                  Am7                      D7
|-----------------0------|-5-----5--5-----5--5----|-5--------3-----2-------|
|--1--------0------------|-5-----5--5-----5--5----|----3-----------3-------|
|--1-----1---------------|-5-----5--5-----5--5----|-------5-----2----------|
|-----0------------------|-5-----5--5-----5--5----|-0----------------------|
|------------------------|-7-----7--7-----7--7----|------------------------|
|--0-----------0---------|-5-----5--5-----5--5----|------------------------|
                   Attentionne...         ...genoux                 
Des ca-

   G6                       CM7                      F#m7(b5)
|--0----------------------|------------------------|-------------------------|
|-----------3-------------|-3--------1-----0-------|-1--------1-----1--------|
|-----0-----------0-------|----0-----------------0-|----2-----------------2--|
|--------0-----------0----|-------2-----------2----|-------2-----------2-----|
|-------------------------|-3-----------3----------|-------------------------|
|--3-----------3----------|------------------------|-2-----------2-----------|
  -resses         ...gouts                  Dans la flemme...        
   ..ou


   B9b                      Em                               B7
|-------------------------|----------------------------------------2--------|
|--1--------0-----------0-|-------0--------0-----------0-----------0--------|
|-----2--------------2----|----0--------0-----0-----0-----0-----2--------2--|
|--------1--------1-------|-------------------------------------------1-----|
|--2-----------2----------|----------------------------------2--------------|
|-------------------------|-0--------2-----------3--------------------------|
                   Mais doux                                       Oh
je se-

   Em7                      B9b                      Em7
|-------------------------|------------------------|-------------------------|
|--------3--------1-------|-1--------0-----------0-|-------3--------1--------|
|--------0--------0-----0-|-------2-----------2----|-------0--------0-----0--|
|-----2-----2--------2----|----1-----------1-------|----2-----2--------2-----|
|-------------------------|-2-----------2----------|-------------------------|
|--0-----------0----------|------------------------|-0-----------0-----------|
  -rai                  doux                  Comme un...            
..cachou

   E7(5#)                  Am7                      D7
|-----------------0------|-5-----5--5-----5--5----|-5--------3-----2-------|
|--1--------0------------|-5-----5--5-----5--5----|----3-----------3-------|
|--1-----1---------------|-5-----5--5-----5--5----|-------5-----2----------|
|-----0------------------|-5-----5--5-----5--5----|-0----------------------|
|------------------------|-7-----7--7-----7--7----|------------------------|
|--0-----------0---------|-5-----5--5-----5--5----|------------------------|
                   A l'abri...             ...igloo                
Couches...

   G6                       CM7                      F#m7(b5)
|--0----------------------|------------------------|-------------------------|
|-----------3-------------|-3--------1-----0-------|-1--------1-----1--------|
|-----0-----------0-------|----0-----------------0-|----2-----------------2--|
|--------0-----------0----|-------2-----------2----|-------2-----------2-----|
|-------------------------|-3-----------3----------|-------------------------|
|--3-----------3----------|------------------------|-2-----------2-----------|
  debouts...     ...dessous                   Grand manitou...      
...tabous


   B9b                      C7/7M                    B7
|-------------------------|-------------3----------|----------2s3----0----|
|--1--------0-----------0-|----------0-----0-------|------------0---------|
|-----2--------------2----|-------3-----------3----|-------2--------------|
|--------1--------1-------|----2-------------------|----1-----------------|
|--2-----------2----------|-3--------------------0-|-2--------------------|
|-------------------------|------------------------|----------------------|
                   Si doux

Fin :

    Am7                      D7
|-5-----5--5-----5--5----|-5--------3-----2-------|
|-5-----5--5-----5--5----|----3-----------3-------|
|-5-----5--5-----5--5----|-------5-----2----------|
|-5-----5--5-----5--5----|-0----------------------|
|-7-----7--7-----7--7----|------------------------|
|-5-----5--5-----5--5----|------------------------|
-plice avoue...  ...joujou                  De vos

   G6                       CM7                      F#m7(b5)
|--0----------------------|------------------------|-------------------------|
|-----------3-------------|-3--------1-----0-------|-1--------1-----1--------|
|-----0-----------0-------|----0-----------------0-|----2-----------------2--|
|--------0-----------0----|-------2-----------2----|-------2-----------2-----|
|-------------------------|-3-----------3----------|-------------------------|
|--3-----------3----------|------------------------|-2-----------2-----------|
  phantasmes...    ...perou                  capitaine..             
...cours

   B7                 C7/7M
|--------------2----|---------3--------|
|-----------0-------|-------0----------|
|--------2----------|-----3------------|
|-----1-------------|---2--------------|
|--2----------------|-3----------------|
|-------------------|------------------|
               Si doux

Retour...