Jean-Jacques Goldman: Je l'aime aussi (version live)


Auteur : Grégoire Revel. C'est lui que vous devez remercier pour ce travail de fourmi !
# : Effet de volume sur la note suivante grace  une pdale
de volume ou le potard de la guitare.
! : 'Descendre' la note a l'aide du vibrato de la guitare.
/ : Glisser sur la corde jusqu'a la note suivante sans partir
d'une note precise.
\ : Partir de la note precedente et effectuer un glisse vers
le haut du manche.
^ : Hammer ou Pulling-Off entre les 2 notes adjacentes
s : Glisse entre les 2 notes adjacentes.
HA : Harmonique artificielle sur la note en dessous.
() : Jouer la note entre () en bloquant les cordes au niveau
du chevalet avec la main droite (Palm-Muting).
b : Bend vers la note suivante ou le contraire si la note suivante est
plus grave.
{}b : Faire le bend sur la note sans la jouer.



Intro :
0:05 0:07
|---------15----------18------------------------------------------------|
|--/15-15----15-18b20----18b20-18b20~~---{18}b20b18^15--18-18b20~20~20--|
|-----------------------------------------------------------------------|
|-----------------------------------------------------------------------|
|-----------------------------------------------------------------------|
|-----------------------------------------------------------------------|


0:09 x10
|-----------------------------------------------|----------|--|
|--{18}b20b18^15-----18^15----18^15----20^15----|-18^15----|--|
|----------------(0)-------17-------17-------17-|-------17-|--|
|-----------------------------------------------|----------|--|
|-------------------------------------------------------------|
|-------------------------------------------------------------|


0:14
|-------------------------------------------------|
|--18^15-14^15^14----14----------------------15---|
|-----------------17----17-15^17^15----17----15---|
|-----------------------------------17----17------|
|-------------------------------------------------|
|-------------------------------------------------|


0:18 0:21
|----------------------------------------------------------------|
|--15^14----14-------------15----------15^14-----------------15--|
|--------17----17----17----15----------------17-15-----17----15--|
|-----------------17----17--------------------------17----17-----|
|----------------------------------------------------------------|
|----------------------------------------------------------------|


0:24 x11 0:39 G G C F F F C C G G G C F F F C
|------------|
|---3-3---0---1-----1-1---0--0-3----3-3---0---1-----1-1---0~~-|
|--------15--|
|---3-3---1---1-----1-1---1--1-3----3-3---1---1-----1-1---1~~-|
|--------15--|
|---0-0---0---2-----2-2---0--0-0----0-0---0---2-----2-2---0~~-|
|--15^17-----|
|---0-0---2---3-----3-3---2--2-0----0-0---2---3-----3-3---2~~-|
|------------|
|---2-2---3---3-----3-3---3--3-2----2-2---3---3-----3-3---3~~-|
|------------|
|---3-3-------1-----1-1--------3----3-3-------1-----1-1-------|


Couplet 1 :

/ Guitare 1 : x7
|| G G C F F F C C G G G C F F F C C G
|| |--3-3---0---1-----1-1---0--0-3----3-3---0---1-----1-1---0--0-3--|
|| |--3-3---1---1-----1-1---1--1-3----3-3---1---1-----1-1---1--1-3--|
|| |--0-0---0---2-----2-2---0--0-0----0-0---0---2-----2-2---0--0-0--|
|| |--0-0---2---3-----3-3---2--2-0----0-0---2---3-----3-3---2--2-0--|
|| |--2-2---3---3-----3-3---3--3-2----2-2---3---3-----3-3---3--3-2--|
|| |--3-3-------1-----1-1--------3----3-3-------1-----1-1--------3--|
||
|| Guitare 2 :
|| |----------------------------------------------------------------|
|| |----------------------------------------------------------------|
|| |----------------------------------------------------------------|
|| |----------------------------------------------------------3s5~~-|
|| |----------------------------------------------------------3s5~~-|
|| |----------------------------------------------------------------|
\



Pont 1 :
1:36 x4
|---------------|
|---------------|
|--5--5----5~~--|
|--5--5----5~~--|
|--3--3----7~~--|
|---------------|



Refrain 1 :
1:51 1:55
|---------------------------------------------------------------------|
|---------------------------------------------------------------------|
|---------8----8-8-5----5-5----------------8----8-8-5----5-5----------|
|--5----5-8----8-8-5----5-5-3---3-3-5----5-8----8-8-5----5-5-3---3-3--|
|--5----5-6----6-6-3----3-3-3---3-3-5----5-6----6-6-3----3-3-3---3-3--|
|--3----3-------------------1---1-1-3----3-------------------1---1-1--|


1:58
|----------------------------------|
|----------------------------------|
|------------------8~~~----5~~-7~~-|
|--5~~~----3~~~----8~~~----5~~-7~~-|
|--5~~~----3~~~----6~~~----3~~-5~~-|
|--3~~~----1~~~--------------------|


2:05 2:09
|---------------------------------------------------------------------|
|---------------------------------------------------------------------|
|---------8----8-8-5----5-5----------------8----8-8-5----5-5----------|
|--5----5-8----8-8-5----5-5-3---3-3-5----5-8----8-8-5----5-5-3---3-3--|
|--5----5-6----6-6-3----3-3-3---3-3-5----5-6----6-6-3----3-3-3---3-3--|
|--3----3-------------------1---1-1-3----3-------------------1---1-1--|


 _______
2:12 2:20
/ \ Ceci est effectu
|---------------------------------------------------------------------#15!--|
 sur le disque par
|---------------------------------------------------------------------#15!--|
 un synth.
>|------------------3~~~----5~~~-------15^17-15-14-12~~~\-----7-7-7-7--------|
>|--5~~~----3~~~----3~~~----5~~~------------------------------7-7-7-7--------|
>|--5~~~----3~~~----1~~~----3~~~------------------------------5-5-5-5--------|
>|--3~~~----1~~~-------------------------------------------------------------|


Couplet 2 :

/ Guitare 1 : x4
|| G G C F F F C C G G G C F F F C C G
|| |--3-3---0---1-----1-1---0--0-3----3-3---0---1-----1-1---0--0-3--|
|| |--3-3---1---1-----1-1---1--1-3----3-3---1---1-----1-1---1--1-3--|
|| |--0-0---0---2-----2-2---0--0-0----0-0---0---2-----2-2---0--0-0--|
|| |--0-0---2---3-----3-3---2--2-0----0-0---2---3-----3-3---2--2-0--|
|| |--2-2---3---3-----3-3---3--3-2----2-2---3---3-----3-3---3--3-2--|
|| |--3-3-------1-----1-1--------3----3-3-------1-----1-1--------3--|
||
|| Guitare 2 :
|| |----------------------------------------------------------------|
|| |----------------------------------------------------------------|
|| |----------------------------------------------------------------|
|| |----------------------------------------------------------3s5~~-|
|| |----------------------------------------------------------3s5~~-|
|| |----------------------------------------------------------------|
\



Pont 2 :
2:52 x4
|---------------|
|---------------|
|--5--5----5~~--|
|--5--5----5~~--|
|--3--3----7~~--|
|---------------|



Refrain 2 :
3:07 3:11
|---------------------------------------------------------------------|
|---------------------------------------------------------------------|
|---------8----8-8-5----5-5----------------8----8-8-5----5-5----------|
|--5----5-8----8-8-5----5-5-3---3-3-5----5-8----8-8-5----5-5-3---3-3--|
|--5----5-6----6-6-3----3-3-3---3-3-5----5-6----6-6-3----3-3-3---3-3--|
|--3----3-------------------1---1-1-3----3-------------------1---1-1--|


3:14
|----------------------------------|
|----------------------------------|
|------------------8~~~----5~~-7~~-|
|--5~~~----3~~~----8~~~----5~~-7~~-|
|--5~~~----3~~~----6~~~----3~~-5~~-|
|--3~~~----1~~~--------------------|


3:22 3:25
|---------------------------------------------------------------------|
|---------------------------------------------------------------------|
|---------8----8-8-5----5-5----------------8----8-8-5----5-5----------|
|--5----5-8----8-8-5----5-5-3---3-3-5----5-8----8-8-5----5-5-3---3-3--|
|--5----5-6----6-6-3----3-3-3---3-3-5----5-6----6-6-3----3-3-3---3-3--|
|--3----3-------------------1---1-1-3----3-------------------1---1-1--|


3:29 3:36
|-----------------------------------------------------|
|-----------------------------------------------------|
|------------------3~~~----5~~~-------15^17-15-14-12--|
|--5~~~----3~~~----3~~~----5~~~-----------------------|
|--5~~~----3~~~----1~~~----3~~~-----------------------|
|--3~~~----1~~~---------------------------------------|


Solo 1 :
3:37
|------------------------------|
|------------------------------|
|------------------------------|
|---------------------7-8-10---|
|-----7-8-9-10---9-10----------|
|--10--------------------------|


3:47
|------------------------------------------|
|------------------------------------------|
|-----------------------------------7-8-9--|
|---------------------7-8-10---8-10--------|
|-----7-8-9-10---9-10----------------------|
|--10--------------------------------------|


3:51 HA HA HA
|------------------------13---------13--------15-15-15-|
|--------13-13-13-13--13---------13----13-13-----------|
|---------------------------12~~-----------------------|
|--12~~------------------------------------------------|
|------------------------------------------------------|
|------------------------------------------------------|


3:57
|----------------------------------------|
|----------------------------------------|
|----------------------------------------|
|--12-9----------------------------------|
|-------10~---10-12^10s9--10-10s12~~~~~--|
|----------------------------------------|
 ^--------- Faire vibrer la note 
l'aide du vibrato.

4:06 4:10
|--------------------------------------------------------------------------------|
|------------------------------------------------------10-11-13--13b15~-13b-15~~-|
|-----------------------------------7-8-9--10-12-10-12--------------------------|
|---------------------7-8-10---8-10---------------------------------------------|
|-----7-8-9-10---9-10-----------------------------------------------------------|
|--10---------------------------------------------------------------------------|


4:11 4:13
|----------------------------------------------13b15-----------------|
|--{13}b15b13^11--13-13b15-13-13b15~~~15b13^11-------13-11-13b15b13--|
|--------------------------------------------------------------------|
|--------------------------------------------------------------------|
|--------------------------------------------------------------------|
|--------------------------------------------------------------------|


4:15 4:18
|------15--------------18-------------------18b20~~~-18-17-18-17b18b17b18b17b18b17--|
|--/15----15-18-18b20~~---18b20~~~~20b18^15-----------------------------------------|
|-----------------------------------------------------------------------------------|
|-----------------------------------------------------------------------------------|
|-----------------------------------------------------------------------------------|
|-----------------------------------------------------------------------------------|


 Guitare2 :
4:22 4:24
|-----15-17-18-18b20~20~~b21--|--16b18-16b18~-----------------13-14-16-18-18b20-18b20--|
|--18-------------------------|---------------16b18~-16-14-16--------------------------|
|-----------------------------|--------------------------------------------------------|
|-----------------------------|--------------------------------------------------------|
|-----------------------------|--------------------------------------------------------|
|-----------------------------|--------------------------------------------------------|


 Guitare 2 :
 4:28 4:31
/
|--18-16--------------------------------------------------------------------------|
||
|--------19-18-16-18b19~~19b18-16-14--------------13-15-13~--13~--15-16-15~--15~--|
||
|------------------------------------17-15~--15~----------------------------------|
||
|---------------------------------------------------------------------------------|
||
|---------------------------------------------------------------------------------|
||
|---------------------------------------------------------------------------------|
||
||
|| Guitare 1 : 4:31
||
|---------------------------------------------------------------------------------|
||
|--------------------------------------------------------------------13-----------|
||
|---------------------------------------12~--12~--14-15-14~--14~--15----15~--15~--|
||
|---------------------------------------------------------------------------------|
||
|---------------------------------------------------------------------------------|
||
|---------------------------------------------------------------------------------|
\



 Guitare 2 :
 4:35 4:38
/
|--------15~--15-15-14-15-15b17~--15b17~--15b17~--15b17~~~~17b15^13------------|
||
|--16-18------------------------------------------------------------15~~~~~~~--|
||
|------------------------------------------------------------------------------|
||
|------------------------------------------------------------------------------|
||
|------------------------------------------------------------------------------|
||
|------------------------------------------------------------------------------|
||
||
|| Guitare 1 :
| 4:35|
||
|------------------------------------------------------------------------------|
||
|--13-15-16~--16-16-15-16-15~~~~~----------------------------------------------|
||
|------------------------------------------------------------------------------|
||
|------------------------------------------------------------------------------|
||
|------------------------------------------------------------------------------|
||
|------------------------------------------------------------------------------|



Refrain 3 :

D'abord les voix seules. Accords 1
5 ton plus bas : Em C Am D
 puis Em D C D


4:59 5:03
|---------------------------------------------------------------------|
|---------------------------------------------------------------------|
|---------8----8-8-5----5-5----------------8----8-8-5----5-5----------|
|--5----5-8----8-8-5----5-5-3---3-3-5----5-8----8-8-5----5-5-3---3-3--|
|--5----5-6----6-6-3----3-3-3---3-3-5----5-6----6-6-3----3-3-3---3-3--|
|--3----3-------------------1---1-1-3----3-------------------1---1-1--|


5:06 5:13
|-----------------------------------------------------|
|-----------------------------------------------------|
|------------------3~~~----5~~~-------15^17-15-14-12--|
|--5~~~----3~~~----3~~~----5~~~-----------------------|
|--5~~~----3~~~----1~~~----3~~~-----------------------|
|--3~~~----1~~~---------------------------------------|


5:17 5:20
|---------------------------------------------------------------------|
|---------------------------------------------------------------------|
|---------8----8-8-5----5-5----------------8----8-8-5----5-5----------|
|--5----5-8----8-8-5----5-5-3---3-3-5----5-8----8-8-5----5-5-3---3-3--|
|--5----5-6----6-6-3----3-3-3---3-3-5----5-6----6-6-3----3-3-3---3-3--|
|--3----3-------------------1---1-1-3----3-------------------1---1-1--|


5:24
|----------------------------------|
|----------------------------------|
|------------------8~~~----5~~-7~~-|
|--5~~~----3~~~----8~~~----5~~-7~~-|
|--5~~~----3~~~----6~~~----3~~-5~~-|
|--3~~~----1~~~--------------------|


5:31 5:34
|---------------------------------------------------------------------|
|---------------------------------------------------------------------|
|---------8----8-8-5----5-5----------------8----8-8-5----5-5----------|
|--5----5-8----8-8-5----5-5-3---3-3-5----5-8----8-8-5----5-5-3---3-3--|
|--5----5-6----6-6-3----3-3-3---3-3-5----5-6----6-6-3----3-3-3---3-3--|
|--3----3-------------------1---1-1-3----3-------------------1---1-1--|


5:38 5:45
|-----------------------------------------------------|
|-----------------------------------------------------|
|------------------3~~~----5~~~-------15^17-15-14-12--|
|--5~~~----3~~~----3~~~----5~~~-----------------------|
|--5~~~----3~~~----1~~~----3~~~-----------------------|
|--3~~~----1~~~---------------------------------------|


Solo de voix de Carole Fredericks (de 5:47  6:44)


Solo Final :
6:45 6:48
|--------------------------------------------------------------|
|--18b20-18b20~~~~20b18^15-18-18b20-18-18b20~~~---18b20b18^15--|
|--------------------------------------------------------------|
|--------------------------------------------------------------|
|--------------------------------------------------------------|
|--------------------------------------------------------------|


6:48 6:50 6:51
|-----------15------------------------------------------------------|
|--------15----18^15-------15---------17-15-------------------------|
|--17b19-------------17b19----17b19~--17-15--17b19--17~~~~~---/15\--|
|-------------------------------------------------------------------|
|-------------------------------------------------------------------|
|-------------------------------------------------------------------|


6:52 6:54
|-------------------------------------3-5-6^3-5^3--------------------------|
|---------------------------------------------------6^3--------------------|
|----------------------2-3^2-5^2-3^5--------------------6-5^6^5^3---5---3--|
|------3---5^3---3---5--------------------------------------------5---5----|
|--3^5---5-----5-----------------------------------------------------------|
|--------------------------------------------------------------------------|


6:55 6:56 7:02
|---------------------------------------------------------------------------------------|
|---------------------------------------------------------------------------------------|
|--2^3^2---2---------/3-5-5b7~~~7~7~7~7~7b6~6b5~5~5-3^5~~---3-3^5-3---------------------|
|--------5---3-3s5--------------------------------------------------5~~-----3-----------|
|-----------------------------------------------------------------------3^5---3-1-3~~\--|
|---------------------------------------------------------------------------------------|


7:06 7:13
 7:19
|-----------------------------------------------------------------------------|
|-----------------------------------------------------------------------------|
|------------------3~~~----5~~~-------15^17-15-14-12~~~\-----7-7-7-7----------|
|--5~~~----3~~~----3~~~----5~~~------------------------------7-7-7-7-------5--|
|--5~~~----3~~~----1~~~----3~~~------------------------------5-5-5-5-------5--|
|--3~~~----1~~~------------------------------------------------------------3--|


Retour...