Jean-Jacques Goldman: Il suffira d'un signe


Auteur : Grégoire Revel. C'est lui que vous devez remercier !

Extrait sonore : rythmique du morceau
() : Jouer la note entre () en bloquant les cordes au niveau
du chevalet avec la main droite (Palm-Muting).
[] : La note entre [] n'est pas indispensable.

Intro :
                                (*4)
|-----------------------------|
|-----------------------------|
|--7---------7---------7------|
|--7---------7---------7------|
|--5-(5)-(5)-5-(5)-(5)-5-(5)--|
|-----------------------------|


Couplets :

Riff 1 :

|-------------------------------------------------------|
|-------------------------------------------------------|
|--7---------7---------7----[7]--------5---------5------|
|--7---------7---------7-----8---------5---------5------|
|--5-(5)-(5)-5-(5)-(5)-5-(5)-5-(5)-(5)-5-(5)-(5)-5-(5)--|
|-------------------------------------------------------|

Riff 2 :

|----------------------------------------------------|
|----------------------------------------------------|
|--7-----7---------7----[7][7]---[7]----5-----5------|
|--7-----7---------7-----8--8-----8-----5-----5------|
|--5-(5)-5-(5)-(5)-5-(5)-5--5-(5)-5-(5)-5-(5)-5-(5)--|
|----------------------------------------------------|

Le riff 1 n'est joue me semble t'il qu'au premier
coupler
ensuite on passe au riff 2.

Entre 2 couplets il faut jouer :

|-------------------------------------------------------|
|-------------------------------------------------------|
|--3---------3---------3-----5---------5---------5------|
|--3---------3---------3-----5---------5---------5------|
|--1-(1)-(1)-1-(1)-(1)-1-(1)-3-(3)-(3)-3-(3)-(3)-3-(3)--|
|-------------------------------------------------------|

Entre le couplet et le refrain il faut jouer :

|------------------------------------------------------|
|------------------------------------------------------|
|--3---------3---------3--------------2-------------2--|
|--3---------3---------3--------------2-------------2--|
|--1-(1)-(1)-1-(1)-(1)-1-(1)-(0)-(0)--0-(0)-(0)-(0)-0--|
|------------------------------------------------------|

Refrain :

   D   G     D      G     G      D D

|--2---3-----2------3-----3------2-2-----|
|--3---3-----3------3-----3------3-3-----|
|--2---4-----2------4-----4------2-2-----|
|--0---0-----0------0-----0------0-0-----|
|----------------------------------------|
|----------------------------------------|
  Regarde ma vie tu la vois face a face

   D      G    D       Bb  

|--2------3----2-----------------------------|
|--3------3----3-----------------------------|
|--2------4----2-----------------------------|
|--0------0----0--------------0--3--2--0-----|
|----------------------1----3-------------3--|
|--------------------------------------------|
  Dis moi ton avis que veux tu que j'y fasse

       D       G        D     G    G        D D

|------2-------3--------2-----3----3--------2-2-----|
|------3-------3--------3-----3----3--------3-3-----|
|------2-------4--------2-----4----4--------2-2-----|
|------0-------0--------0-----0----0--------0-0-----|
|---------------------------------------------------|
|---------------------------------------------------|
  Nous n'avons plus que ça au bout de notre impasse

    Bb                  C

|---------------------------------------------|
|---------------------------------------------|
|---------------------------------------------|
|---3-3-3-3-3-3-3-3-3-3-5-5-5-5-5-5-5-5-5-5-5-|
|---3-3-3-3-3-3-3-3-3-3-5-5-5-5-5-5-5-5-5-5-5-|
|---1-1-1-1-1-1-1-1-1-1-3-3-3-3-3-3-3-3-3-5-5-|
Le moment viendra tout changera de place

  Gm                    A

|------------------------------|
|------------------------------|
|------------------------------|
|--------------5--7--8--7~~~~~-|
|-----------5------------------|
|--3--5--6---------------------|

A la fin reprendre le riff 2 du couplet .

Retour...