Jean-Jacques Goldman: Rouge


L'auteur de cette retranscription est Grégoire Revel.

Bien le bonjour aux guitaristes en herbe

Voici donc le solo de Rouge. A noter que pendant qu'il est executé il y a une 2nde guitare dans le fond qui joue des notes aigus mais je ne les ai pas retranscrites. Et puis en Live elles ne sont pas jouées je crois.


Rouge (Jean-Jacques Goldman)


/ : Glisser sur la corde jusqu'a la note suivante sans partir
d'une note precise.
^ : Hammer ou Pulling-Off entre les 2 notes adjacentes.
s : Glisse entre les 2 notes adjacentes.
b : Bend vers la note suivante ou le contraire si la note suivante est
plus grave.
{} : Note indicative pour un slide ou un bend (à ne pas jouer).



Solo 1 :

2:43                                      2:47
|----------------------------------------------------------------------------------|
|--5-------------------5-------------------------------------------8---------------|
|--5--------5----------5--------5----------7--------5----------/9-----{5}s7--5-----|
|-----7-----5--7~~~-------7-----5--7~~~----7--7-----5--7~~~---------------------7--|
|--------7-------------------7-------------------7---------------------------------|
|----------------------------------------------------------------------------------|


2:51                                      2:54
|----------------------------------------------------------------------------------|
|--5-------------------5-------------------------------------------8---------------|
|--5--------5----------5--------5----------7--------5----------/9-----{5}s7--5-----|
|-----7-----5--7~~~-------7-----5--7~~~----7--7-----5--7~~~---------------------7--|
|--------7-------------------7-------------------7---------------------------------|
|----------------------------------------------------------------------------------|


2:58                                        3:01
|-----------------------------------------------------------------------------------------|
|--8--------------------8----------------------------------------------11-----------------|
|--8---------8----------8---------8----------10---------8----------/12-----{8}s10--8------|
|----10------8--10~~~-----10------8--10~~~---10-10------8--10~~~----------------------10--|
|--------10-------------------10--------------------10------------------------------------|
|-----------------------------------------------------------------------------------------|


3:05                                      3:08
|----------------------------------------------------------------------------------|
|--5-------------------5-------------------------------------------8---------------|
|--5--------5----------5--------5----------7--------5----------/9-----{5}s7--5--7--|
|-----7-----5--7~~~-------7-----5--7~~~----7--7-----5--7~~~------------------------|
|--------7-------------------7-------------------7---------------------------------|
|----------------------------------------------------------------------------------|


3:12                                                 3:13          3:15
|-------------------------------------------------------------------------------------|
|-------------------------------------------------------------------5-----------------|
|------(0)-(0)------(0)-(0)------(0)-(0)------(0)-(0)---------------5--------5--------|
|--(2)----------(2)----------(2)----------(2)--------------------------7-----5--7~~~--|
|-------------------------------------------------------------------------7-----------|
|-------------------------------------------------------0--2--3--4--5-----------------|


            3:19                          3:20 
|----------------------------------------------------------------------------|
|--5---------------------------------------/10--8--7--5--------------5-------|
|--5--------5----------7--------5------------------------7--6--5--6----------|
|-----7-----5--7~~~----7--7-----5--7~~~---------------------------------7~~--|
|--------7-------------------7-----------------------------------------------|
|----------------------------------------------------------------------------|
                                                ^---- Il y a la une
2nde guitare
                                                      qui joue. Mais
elle est dure
                                                      à distinguer et
transcrire.

3:22                                      3:26
|----------------------------------------------------------------------------------|
|--5-------------------5-------------------------------------------8---------------|
|--5--------5----------5--------5----------7--------5----------/9-----{5}s7--5-----|
|-----7-----5--7~~~-------7-----5--7~~~----7--7-----5--7~~~---------------------7--|
|--------7-------------------7-------------------7---------------------------------|
|----------------------------------------------------------------------------------|


3:29                                        3:33
|-----------------------------------------------------------------------------------------|
|--8--------------------8----------------------------------------------11-----------------|
|--8---------8----------8---------8----------10---------8----------/12-----{8}s10--8------|
|----10------8--10~~~-----10------8--10~~~---10-10------8--10~~~----------------------10--|
|--------10-------------------10--------------------10------------------------------------|
|-----------------------------------------------------------------------------------------|


3:36                                      3:40
|----------------------------------------------------------------------------------|
|--5-------------------5-------------------------------------------8---------------|
|--5--------5----------5--------5----------7--------5----------/9-----{5}s7--5-----|
|-----7-----5--7~~~-------7-----5--7~~~----7--7-----5--7~~~---------------------7--|
|--------7-------------------7-------------------7---------------------------------|
|----------------------------------------------------------------------------------|


3:43                                                  3:45
|------------------------------------------------------------------------------|
|------------------------------------------------------------------------------|
|------(0)-(0)------(0)-(0)------(0)-(0)------(0)-(0)--------------------------|
|--(2)----------(2)----------(2)----------(2)----------------------------------|
|------------------------------------------------------------------------------|
|-------------------------------------------------------0-0--2-2--3-3--4-4--5--|


3:47            3:49          3:50                                  
              3:57
|----------------------------------------------------------------------------------------|
|----------------------------------------------------------------------------------------|
|--------------------------------------------8-----7---------------------------------5~~-|
|--------------------------------3-----6---------9-----6-9------3--------------------5~~-|
|----------1-2-----------2-3---2-----5-----8----------------5-----2---5-----2-1-0----3~~-|
|--2-3-4-5-------3-4-5-6------------------------------------------------5---------3------|




                          -------------------------------



Solo 2 :

  4:32                        4:34                              4:39 
              4:41
|------------------------------------------------------------10----------------------------|
|-----------------------5--8------------8---10b12~~---10b12~----8~~-------8--8b10b8--------|
|---------------5--6s7--------7~~~---/9---9---------------------------7s9------------------|
|------------5-----------------------------------------------------------------------10~~--|
|--3~~--5s7--------------------------------------------------------------------------------|
|------------------------------------------------------------------------------------------|


   4:42                                 4:44                         
4:46
|----------------------------------------------------------------------------------------|
|--------8--8-10-8-11-10--8^10^8---------------------------------------------10-11b13~~--|
|--/9-10--------------------------10-9--12b14b12^10s9-----9-12------------10-------------|
|------------------------------------------------------12------12~~---/12----------------|
|----------------------------------------------------------------------------------------|
|----------------------------------------------------------------------------------------|


Un monde nouveau tu comprends.....

  4:54                    4:57                                    4:58
|--------------------------------------------------------15-17-19-19b20~~-19b20b19^17--|
|----------------------------------------------15-17-18--------------------------------|
|--17b19~--17-17-16-14~------14-16---14-16-17------------------------------------------|
|-------------------------17-----------------------------------------------------------|
|--------------------------------------------------------------------------------------|
|--------------------------------------------------------------------------------------|


   5:00      5:01                 5:03               5:05
|--20b22~~---20b22b20^17------17-----------------------------|
|-------------------------20------20b22~~~22~~~22~~--20~~~~--|
|------------------------------------------------------------|
|------------------------------------------------------------|
|------------------------------------------------------------|
|------------------------------------------------------------|


Retour...