Jean-Jacques Goldman: Peurs contre peurs


/ : Glisser sur la corde jusqu'a la note suivante sans partir
d'une note precise.
h : Hammer entre les 2 notes adjacentes.
p : Pulling-Off entre les 2 notes adjacentes.
s : Glisse entre les 2 notes adjacentes.
£ : jouer l'accord en dessous plusieurs fois à la maniere
Flamenco (le mieux est d'ecouter le CD)
$ : Jouer l'accord en dessous en égrénant les notes.

0:00 0:06 0:09
£ £ $
|--0-0---------------0-1-0-3-1-0-------------------0--|
|--1-1--------0-1-3--------------3-1-0h1p0---------1--|
|--2-2-----2-------------------------------2-0-2---2--|
|--2-2---------------------------------------------2--|
|--0-0---------------------------------------------0--|
|-----------------------------------------------------|

0:12 0:17
£ £
|--3-3----------------0-1-0-3-1-0----------------------------------3--|
|--3-3----------0-1-3-------------3-1-0h1p0---0-1-3-1-0h1p0--------3--|
|--0-0------0-2-----------------------------2----------------2-0---0--|
|--0-0----0--------------------------------------------------------0--|
|--2-2----------------------------------------------------------------|
|--3-3----------------------------------------------------------------|

0:20
£ £ 0:23
|--1-1------------------------------0-1-3-3s5--3-1-0-3-1-0---------------|
|--1-1--------------------------1-3------------------------3-1-0h1p0-----|
|--2-2--------------------0-2-4--------------------------------------2-0-|
|--3-3--------------0-2-3------------------------------------------------|
|-------------0-2-3------------------------------------------------------|
|---------1-3------------------------------------------------------------|

0:27
£ £ £ £
|----------------------------------|
|----------------------------------|
|----------------------1-1-2-2--1~~|
|--3-2-0---------------2-2-3-3--2~~|
|--------3-2-0---------2-2-3-3--2~~|
|--------------3-1-0---0-0-1-1--0~~|


0:33 0:35
|---------------------------------------------------------------|
|----------------------------0-1-3-1-3-3s5-5~--3-1-0h1p0--------|
|--------------------------2-----------------------------2-0-2--|
|------------------------2--------------------------------------|
|---------------------0~~---------------------------------------|
|---------------------------------------------------------------|
Mesdames...Messieurs

0:40 0:44
$
|------------------3--1-0----------------------|
|------------------3------3-1-0h1p0------------|
|------------------0----------------2-0---0-0~-|
|---------------------------------------3------|
|----------------------------------------------|
|----------------------------------------------|
Voici...edifiante

0:47 0:50

|-----------------------1-1-0-0--------------------------|
|----------------------1~-------3-3-1-1-0-0--------------|
|---------------------2~--------------------2-2-0-0------|
|--------------------3~-----------------------------3-3--|
|-------------------3~-----------------------------------|
|------------------1~------------------------------------|
De ce...voisinage

0:55 0:58
£ £ £ £ £ £ £ £ £
|------------------------------------------|
|------------------------------------------|
|----------------1-1---2-2---0-0---2-2--1~~|
|----------------2-2---3-3---0-0---3-3--2~~|
|----------------2-2---3-3---2-2---3-3--2~~|
|----------------0-0---1-1---3-3---1-1--0~~|
Quand on...monde