Jean-Jacques Goldman: Je commence demain


L'auteur de cette retranscription est Grégoire Revel.

L'intro + le riff principal
Il y a une guitare supplementaire pendant l'intro qui joue une rythmique
blues sur les accords marqué sur la portée dans le style de l'accompagnement
pendant le couplet de la chanson


/ : Glisser sur la corde jusqu'a la note suivante sans partir
d'une note precise.
\ : Partir de la note precedente et effectuer un glisse vers
le haut du manche.
> ou <: Hammer ou Pulling-Off entre les 2 notes adjacentes.
s : Glisse entre les 2 notes adjacentes.
b : Bend ou ReleaseBend suivant entre les 2 notes adjacentes

A partir de 0:41
la guitare qui joue utilise un Bottleneck et est
accordée à mon avis en Open Tuning de SOL. Mais j'ai préféré
transcrire cette partie pour une guitare accordée normalement (EADGBE).
Il est donc difficile d'utiliser un slide sur cette transcription
A noter aussi que vers la fin (environ 0:59) il ya 2 guitares transcrites
sur la meme portée.


   0:02
|-------------------------------|
|-------------------------------|
|-------------------------------|
|--2----------------------------|
|--2----------------------------|
|--0----------------------------|
      Alors que nous....1
2
3
4


   0:07                                0:10
   E                                   E
|------------------------------------------------------------------------|
|------------------------------------------------------------------------|
|------------------------------------------------------------------------|
|--2---------------------------------------------------------------------|
|--2---2-------2---4---5---4---2-----2---2-------2---4---5---4---2-----2-|
|----0---2>3>4---0---0---0---0---0-4---0---2>3>4---0---0---0---0---0-4---|


   0:13                                 0:15
   A                                    E
|-------------------------------------------------------------------------|
|-------------------------------------------------------------------------|
|-------------------------------------------------------------------------|
|----2---2--2-2-4---5---4---2-------2-------------------------------------|
|--0---4----------0---0---0---0-3>4-------2-------2---4---5---4---2-----2-|
|---------------------------------------0---2>3>4---0---0---0---0---0-4---|


   0:18                             0:21
   B                                E
|--------------------------------------------------------------|
|--------------------------------------------------------------|
|--------------------------------------------------------------|
|----4---4---4---4---4---4---4---4--2--------------------------|
|----------0---1---2---0------------2---5---4---3---2---0>1-2--|
|--2---4-------------------4---2----0-0---0---0---0---0--------|


   0:24                              0:26
|--12-12------------------------------------------------------------|
|--12-12----10b12--10b12b10<8---8----------8-10b12--10b12b10<8---8--|
|-----------------------------9---9----7-9---------------------9----|
|------------------------------------9------------------------------|
|-------------------------------------------------------------------|
|-------------------------------------------------------------------|


   0:28                                        0:31
|---------------------------------------------------------------------|
|------------------------------8---10-8~\--------5-3b5--3-0-----------|
|--9-7-9-7-----------------7-9---9------------/4------------2-0---2-0-|
|----------9-8-7-5---5-7s9--------------------------------------2-----|
|------------------7--------------------------------------------------|
|---------------------------------------------------------------------|


   0:32                            0:35
|--------------------------------------4---3---2-----0--0----|
|------------------------------------------------0---0--3b5--|
|--------------------0----2-0-0~---2s4---3---2---2s4---------|
|--2-0-----------0-2----2-----0~-----------------------------|
|------2-0---0-2---------------------------------------------|
|----------3-------------------------------------------------|


   0:37                    0:38
|--0-----------------------------------------------------|
|----3-0--------------------------------------------0-0--|
|--------2-0---2-0---2-------0-2-2b4-2b4b2<0---0--0-2-4--|
|------------2-----2---2---2-----------------2-----------|
|--------------------------------------------------------|
|--------------------------------------------------------|


   0:41       0:43       0:44       0:45       0:46
           x6         x6         x3         x3
|--|-----10-|-|-----10-|-|-----10-|-|-----10-|-----12---12--|
|--|-/12----|-|-/12----|-|-/12----|-|-/12----|-/14----14----|
|-----------------------------------------------------------|
|-----------------------------------------------------------|
|-----------------------------------------------------------|
|-----------------------------------------------------------|


   0:47            0:48                    0:51
|-----------------------------------------------------------|
|--10s8---8-8------------------------------10\----9-9-------|
|-------9-----9~---9s7---7-7-7-7-7-7-7s9~------/9-----9~~~--|
|----------------------9------------------------------------|
|-----------------------------------------------------------|
|-----------------------------------------------------------|


   0:53                      0:56
|----7\------------------------------------------------------|
|-------/8-------------8-----10s9---8-8----------------------|
|----------9-7-----7s9---9~-------9-----9---9s7-7-7-7-7s9~~--|
|--9-----------9~--------------------------------------------|
|------------------------------------------------------------|
|------------------------------------------------------------|


   0:59
|-----------------------------------------------|
|---------------------------------------7s9--9--|
|---------------------------------------7s9--9--|
|---------------------------------------7s9--9--|
|--2----------2----------2----------2-----------|
|--0-0-2>3>4--0-0-2>3>4--0-0-2>3>4--0-0-2>3>4---|


   1:02
|-----------------------------------------------|
|---------------------------------------7s9--9--|
|---------------------------------------7s9--9--|
|---------------------------------------7s9--9--|
|--2----------2----------2----------2-----------|
|--0-0-2>3>4--0-0-2>3>4--0-0-2>3>4--0-0-2>3>4---|


   1:04
|-----------------------------------------------|
|---------------------------------------7s9--9--|
|---------------------------------------7s9--9--|
|--2----------2----------2----------2---7s9--9--|
|--0-0-2>3>4--0-0-2>3>4--0-0-2>3>4--0-0-2>3>4---|
|-----------------------------------------------|


   1:07
|-----------------------------------------------|
|---------------------------------------7s9--9--|
|---------------------------------------7s9--9--|
|---------------------------------------7s9--9--|
|--2----------2----------2----------2-----------|
|--0-0-2>3>4--0-0-2>3>4--0-0-2>3>4--0-0-2>3>4---|


   1:10                              1:13
|------------------------------------0-----------------------------|
|------------------------------------3b5-0-------------------------|
|------------------------------------------2-0---2-0---------------|
|----4---4---4---4---4---4---4---4-------------2-----2-0-2--2-0-2--|
|----------0---1---2---0-------------------------------------------|
|--2---4-------------------4---2-----------------------------------|


   1:17
|----------0-------------------------|
|----------3s2-2~--------------------|
|----------4s3-2~---0>1<0------------|
|--------------2~---------2----------|
|--------------0~----------2---------|
|--7\---0--------------------3b4-0~--|   Etc.......


Retour...