Jean-Jacques Goldman: Sache que je


Généreusement transcrit par Ralphi Toledano.

Riff principal (A)
------------------


E---7-------------7-----------7--------------7-------------
B----------0------------0-------------0------------0-------
G-------0----0-------0------------0-----0------0-----------
D----------------------------------------------------------
A----------------------------------------------------------
E---0-------------------------10---------------------------



E---7-------------7-----------5---------3---------2------------
B----------0------------0-----------------------------------0--
G-------0----0-------0------------0----------0----------0------
D--------------------------------------------------------------
A--------------------------------------------------------------
E---9--------------------------8-------------------------------


Intro : A x 2
Couplet : A x 4 puis


E---3-------------3-----------3------------------3----------------
B----------1--------------1--------------1-----------------1------
G-------2----2-------2--------------2------2---------2------------
D-----------------------------------------------------------------
A---0--------------------------0----------------------------------
E-----------------------------------------------------------------
Am7          Am7           B    C             B

Refrain + final :

Em/C/Am/B x 4

E---0------2-------3--------3-------2-------0-----------------
B----------------------------------------------------------------
G-------0------0-------0--------0-------0-------0-------------
D----------------------------------------------------------------
A----------------------------3----------------------------------
E---0------------------------------------------------------------
Em             C



E---0------2-------3---------2-----------------2---------------
B------------------------------4---------2s4-------------------
G-------2------2-------2-----4-----4---------------------------
D--------------------------------------------------------------
A---0-------------------------2--------------------------------
E--------------------------------------------------------------
Am             B

Retour...