Jean-Jacques Goldman: Sache que je


Auteur : Benoit Croitoru
(ce message est tiré de la liste de discussion Là-bas consacrée à JJG)
Etudiant aux Etats-Unis
je n'aurais probablement pas l'occasion
d'acheter le recueil de partitions guitare de "En Passant" avant un bon
moment (le temps pour moi de retourner en France).
Aussi
apres la retranscription (tres reussie) a la guitare du
Coureur
par Herve Lamoureux
je me suis demande s'il ne serait pas
interessant pour tous les guitaristes de la liste d'unir leurs efforts
pour retranscrire l'album en entier.

Si vous avez des commentaires
ou des additions : n'hesitez pas !

=========================================================================

les positions ds accords employes (je ne suis pas tres sur a propos des
noms : mon solfege remonte a tres loin !!)

Em : 022000
E5 : 020000
E/C# : 042000
Cmaj7 : 032000
B : 244422
B/A : 004440
B/G : 304440
B/F# : 204440
C : 032010
Am : 002210

Je n'ai pas retrancsrit les temps
ecoutez le CD : on y arrive assez
vite.

La rythmique se fait en fingerpicking (le pouce pour la ligne de basse
et les autres doigts pour les cordes G
B
e) pour restituer le rythme
des percussions :

            Em          E5                E/C#               Cmaj7
e-----------0-------------0----------------0-----------------0--
B-----------0-------------0----------------0-----------------0--
G----------0-------------0----------------0------------------0--
D----2-------------0-------------------2----------------2-------
A----------------------------------4----------------3-----------
E---------------------------------------------------------------

Em  E5  E/C#  Cmaj7
Il y a des ombres dans "je t'aime"

Em  E5  E/C#  Cmaj7
Pas que de l'amour
pas que ca

Em  E5  E/C#  E/C#
Des traces de temps qui trainent

Cmaj7  Cmaj7  B
Y'a du contrat dans ces mots la

Em  E5  E/C#  Cmaj7
Tu dis l'amour a son langage

Em  E5  E/C#  Cmaj7
Et moi les mots ne servent a rien

Em  E5  E/C#  E/C#
S'il te faut des phrases en otage

Cmaj7  Cmaj7  B  B/A  B/G  B/F#
Comme un sceau sur un parchemin

Pour cette derniere phrase (le break avant le refrain)
la rythmique se
joue :

             Cmaj7          Cmaj7        B                  B/A
   B/G         B/F#
e-------------0--------------0------------2---------------------------------------------
B-------------0--------------0------------4--------------4----------4-----------4-----
G------------0--------------0------------4---------------4----------4-----------4-----
D--------2--------------2--------------------------------4----------4-----------4------
A-----3-------------3---------------2-------------0------------------------------------
E----------------------------------------------------------------3-----------2-----------

Refrain :

Em  C  Am                        B
Alors sache que              je

Em  C  Am                        B
       Sache le

Em  C  Am                        B
Sache que                       je

Em  C  Am                        B


Pont entre le refrain et le secoind couplet :

D-----2--------0--------------------------------------0------2--
A------------------------4---------3---------2------------------
E-----------------------------------------------------------------


Il y a mourir dans je t'aime
Il y a je ne vois plus que toi
Mourir au monde
a ses poemes
Ne plus lire que ses rimes a soi

Un malhonnete stratageme
Ces trois mots la ne s'affirment pas
Il y a une question dans je "je t'aime"
Qui demande "et m'aimes-tu
toi ?"

Refrain

Le petit break au clavier avant le solo peut etre joue comme ca (mais
je pense qu'on peut trouver mieux...)

e-------------------------------------------------------------------------
B---5------7-----8--8-----7------5--5------7-----8-----7------5-----4--


e---3------5-----7--7-----5------3--3------5-----7-----5------3--------
B---5------7-----8--8-----7------5--5------7-----8-----7------5-----4--


Pour l'accompagnement du solo
reprendre les accords du refrain : Em  C
Am   B

Je vais voir ce que je peux faire pour le solo
mais malheureusement je
pense que je vais avoir un peu plus de mal etant donne que ma guitare
electrique est restee en France (soupir....)
Si vous pouvez le retrouver : a vous de jouer !


Voila
have fun !!

Retour...