Jean-Jacques Goldman: Nuit


Fichier MIDI>

(Ce qui suit est d'un auteur inconnu...)

Je vous propose aujourd'hui
amis gratteux et gratteuses
Nuit
.
C'est plein de changement de tonalite
alors ne flippez pas si ca ne rend
rien tout seul (en plus
sans les percus
ca peut ne rien donner).
Alors jouez avec le CD
trouvez les erreurs involontaires (car je suis tres loin d'etre parfait!)
corrigez
ajoutez
et faites vous plaisir!

Mode d'emploi:
H : Hammer
P : Pull-off
B : Bend
R : Release (Relachement d'un bend)
/ : Slide montant
\ : Slide descendant


Nuit
----

(Parole et musique : Jean-Jacques Goldman)

Intro percussion 30"

Gamme utilisee : Si Pentatonique Majeure
30"    32"
La nuit t'habille dans mes bras
e-------------------------------------------------------------
B--B----------------------------------------------------------
G-6_8--------------------------------------H-P----------------
D-----------------------------------------4_6_4---------------
A-----------------------------------------------4-2-----------
E---------------------------------------------------4---------

47"
Pales rumeurs et bruits de soie       Conquerante immobile
--------------------------------------------------------------
---------------------------------B-R--------------------------
--------------------------------6_8_6----------------------H--
----------------------------------------------------------4_6-
--------------------------------------------------------------
--------------------------------------------------------------

54"                      58"
Reine du sang des villes      Je la supposais
la voila
-------------------------------------------------------------
-------------------------------------------------------------
-------------------------H-----------------------------------
------------------------4_6----------------------------------
-------------------------------------------------------------
-------------------------------------------------------------

1'02"
Tout n'est plus qu'ombre

rien ne ment
-----------------------------------------------------------------------
--B------------------------------------------H-P----B-R-P----P---------
-6_8--------------------------------------H-4_6_4--6_8_6_4--6_4--4-----
-----------------------------------------4_6---------------6----6--6---
-----------------------------------------------------------------------
-----------------------------------------------------------------------

1'12"                             1'16"
Le temps demeure et meure pourtant
-----------------------------------------------------7----
----------------------------------------7-7-9-7--------9--
-------------------------------------6-8---------6-8------
----------------------------------6-9---------------------
----------------------------------------------------------
----------------------------------------------------------

1'22"                  1'24"
Tombent les apparences                 Nos longs
si longs silences
B  R P   P
--------------------------9_11_9_7-9_7-------
----------------------(7)--------------------
---------------------------------------------
---------------------------------------------
---------------------------------------------
---------------------------------------------

1'28"
Les amants se perdent en s'aimant
-----7-7-9-7--------------------------------------------------------
-7-9----------------------------------------------------------------
--------------------------------------------------------------------
--------------------------------------------------------------------
--------------------------------------------------------------------
--------------------------------------------------------------------

Changement de gamme : Re pentatonique majeure

1'35"       1'37"                     1'43"  1'47"
Solitaire                             Si pres
a un souffle                         tu m'echappes
de toi                             deja
---B-----------------H---7--------------------------------------10-------10-7-
-10_12-----------H--7_10---10--7_5---7_5-----------------H--7-10--10----7-----
----------------7_9----------------7-----7-----------H--7_9------------9------
-----------------------------------------------7_9----------------------------
------------------------------------------------------------------------------
------------------------------------------------------------------------------

1'52"     1'54"             1'57"
Mon intime                  Se trouver             A qui dit-on ces choses la?
etrangere                  C'est se defaire
B  R  P  H  P
----------12_14_12_10_12_10--------------10---------------------------------
--------------------------------------------10-12-------(10)---(10)---(10)--
------------------------------------9-11--------------(9)----(9)----(9)-----
----------------------------------------------------------------------------
----------------------------------------------------------------------------
----------------------------------------------------------------------------

Changement de gamme : Re pentatonique mineure

2'08"
Dors!
-------10---B---------------------------------------------------------------
-----10---13_15--10-----------B---------------------------------------------
--------------------12---10-12_14-12-10--10---9-10-12-10-9------------------
---------------------------------------12-----------------12-10-10-12-12----
----------------------------------------------------------------------------
----------------------------------------------------------------------------

2'24"
------------------------------------------------------------------------------
-------------------------------------------------------B-------B--R--P--------
-----10-9-----------------------------------10-12-10-12_14---12_14_12_10--12--
---------12-10---10-12-----------------10-12----------------------------12----
10-12-----------------10-8---8-10-10/12---------------------------------------
------------------------------------------------------------------------------

2'27"          2'33"
--------------------------------------------------------------------
------------------------10-13-11-10----(10)-(10)--------------------
-12-10-9-10------9-10-12-------------(9)--(9)-----------------------
-----------12--12---------------------------------------------------
--------------------------------------------------------------------
--------------------------------------------------------------------

Changement de gamme : La Pentatonique Mineure


2'43"         2'47"          2'52"      2'54"
As Dawn                      Vision I
lights up                    once had
another day                  fade away
--------------------------------------------------------------------
---------------B--------------------------8-8-10-8------8-10-10-----
--------------7_9--7--5-5-7------------7/9--------------------------
---------------------------7----------------------------------------
--------------------------------------------------------------------
--------------------------------------------------------------------

3'01"          3'03"      3'06"          3'08"        3'10"
All of those              My wildest dreams           It wasn't suppose
words unspoken              all broken                 to be that way
B  R  P
-------------------8---5-----------------10_12_10_8--8-----------------------
-----------------5---------------------------------10-------------------(13)-
---------------7-----------------------------------------------------------
---------------------------------------------------------------------------
---------------------------------------------------------------------------
---------------------------------------------------------------------------

Should I leave why should I stay  Solitaire a un souffle de toi
Leavin' behind me yesterday       Tout pres tu m'echappes deja
Am I free or forsaken             Mon intime etrangere
Cheated or awakened               Se trouver
se defaire
Does it matter anyway?

Changement de Gamme: Re# pentatonique mineure

3'55"                               4'03"
---11-----B-----------------------------------------------------------
-11--14-14_16-11--------11--------------------------------------------
-----------------13---11--13-11--11-------11----------11-10-----------
-------------------------------13-----------13-------------13-11------
-------------------------------------11-13-------11-13----------------
----------------------------------------------------------------------

4'08"         4'10"                        4'13"
----------------------------------------------------------------------
---------------------------------------------B--R--P------------------
----------------------------------13--15---13_15_13_11--11------------
-11-13-----------------11-11-13/16--16----------------13--------------
------11-9---9-11-11/13-----------------------------------------------
----------------------------------------------------------------------

4'16"                  4'19"                         4'24"
---------------------------------------------14-11---13-14-16-14-13--14-11-
-------------------------------------------------------------------16------
-13-11-10-11-10-------------11-13_11-13/15-13------------------------------
---------------13-13---11/13-----------------------------------------------
---------------------------------------------------------------------------
-------------------------------\__Bof!_____________/-\___Approximatif______/

4'28"
---14-14--14-14--14--14-16_18---(etc....)-----------------------------
-16-----16-----16-----------------------------------------------------
----------------------------------------------------------------------
----------------------------------------------------------------------
----------------------------------------------------------------------
----------------------------------------------------------------------


Le solo
que je n'ai pas transcrit entierement
est tout en Re# pentatonique mineure
je vous donne les positions les plus utilisees dans ce solo (pour que vous puissiez improviser dessus) :

11eme case
|
|
|-*-|---|---|-*-|---|-*-|---|-*-|---|
|-*-|---|---|-*-|---|-*-|---|---|-*-|
|-*-|---|-*-|---|-*-|---|---|-*-|---|
|-*-|---|-*-|---|---|-*-|---|-*-|---|
|-*-|---|-*-|---|---|-*-|---|-*-|---|
|-*-|---|---|-*-|---|-*-|---|-*-|---|


Voila
c'est pas mal pour aujourd'hui.

Retour...