Jean-Jacques Goldman: Plus fort


Intro:
-----------------------------------------------------------------
-----------------------------------------------------------------
-----------------------------------------------------------------
-0--0--------0----0----0--------0-----3--0---0--------0----0---0-
-------3--4---------------3--4-----0------------3--4-------------
-----------------------------------------------------------------

Dm                   Cadd2
----------------------------------------------------------------
-------------------3-----3-----3--3-----3-----3-----3-----3-----
-------------------2-----2-----2--2-----0-----0-----0-----0-----
-------0-----3--0--0--0--------0-----0-----0--------0-----3--0--
-3--4-----0--------------3--4-----------------3--4-----0--------
----------------------------------------------------------------

Bb                   Cadd2                   Bb          C
----------------------0-----0-----0-----0-----------------------
-3-----3-----3--3-----3-----3-----3-----3-----3-------3---1-----
-3-----3-----3--3-----0-----0-----0-----0-----3-------3---0-----
----0--------0-----0-----0--------0-----3--0--3-------3---2-----
-------3--4-----------------3--4-----0--------1-------1---3-----
----------------------------------------------------------------

Gm7        Bb          C
----------------------------------------------------------------
---1---3----------3-----------1---------------------------------
---0---3----------3-----------0---------------------------------
---2---3----------3-----------2---------------------------------
---3---5------0---1-----------3---------------------------------
-------3--------------------------------------------------------

Riff I:
D
----------------------------------------------------------------
----------------------------------------------------------------
----2-----------2--2--------2-----------2--2--2-----------------
-0--0--------0--0--0--0--0--0--------0--0--0--0-----------------
-------3--4--------------------3--4-----------------------------
----------------------------------------------------------------

Riff II:
G
----------------------------------------------------------------
----------------------------------------------------------------
----0-----------0--0--------0-----------0--0--0-----------------
-0--0--------0--0--0--0--0--0--------0--0--0--0-----------------
-------3--4--------------------3--4-----------------------------
----------------------------------------------------------------


D                                          D(riff I)
On veut des trucs nouveaux pour aller plus haut
D(riff I)
Et des supers machins qui nous menent plus loin
G                                   G(riff II)
On veut du neuf et du chic pour aller plus vite
D                                        D(riff I)
Avec plus de confort et beaucoup moins d'effort


Bb                 C            D
Apres tout
nous sommes le marche
Bb               C     D
Nous avons le droit d'exiger
Bb            C         D
Et nous sommes majoritaires
Bb              F         C
Et vous devez nous satisfaire


Dm                Bb                    Cadd2
---------------------------------------------------------------------
-----3---------------------3---------------------3-------------------
-----2---------------------3---------------------0-------------------
-----0----0--------0-------0----0--------0-------0--0-----------0----
-------------3--4----------1-------3--4----------3------3---4--------
---------------------------------------------------------------------
Plus fort
plus fort            Encore encore et toujours

Dm                                    Bb
---------------------------------------------------------------------
-------3------------------3---------------------3--------------------
-------2------------------2---------------------3--------------------
-------0--0--------0------0----0--------0-------0---0--------0-------
-------------3--4-----------------3--4----------1------3--4----------
---------------------------------------------------------------------
encore              plus fort             plus fort           pour nos

Cadd2                             Dm
----------------------------------------------------------1----------
--3-----------------------------3-------------------------3----------
--0-----------------------------2-------------------------2-2-2-2-2--
--0---0-------------0-----------0--0--------0-------------0-0-0-0-0--
--3------3---4------------------------3--4---------------------------
---------------------------------------------------------------------
sens et nos ventres et nos corps              plus fort

Bb                        F
------------1-------------------------1------------------------------
------------3-------------------------1------------------------------
-2--2--2----3-------------------------2------------------------------
-0--0--2----3-3-3-3-3-3----3-----3----3------------------------------
------------1-1-1-1-1-1----1-----1----3-3---3-----3----3--3----3---3-
--------------------------------------1-1---1-----1----1--1----1---1-
plus fort            plus grand plus   gros plus vite et plus fort

C
-0-------------------------------------------------------------------
-1-------------------------------------------------------------------
-0-------------------------------------------------------------------
-2-2-2-2-2-2-2-2-2-2-2-2-2-------------------------------------------
-3-3-3-3-3-3-3-3-3-3-3-3-3-------------------------------------------
---------------------------------------------------------------------

D                                         D(riff I)
On veut des grands desseins faciles a dessiner
D(riff I)
Et des lendemains qui chantent sans avoir a chanter
G                                G(riff II)
On veut plus de savoir et bien moins de lecons
D                                            D(riff I)
Les droits sans les devoirs
le reste sans un rond


Bb                 C            D
Apres tout
nous sommes le marche
Bb               C     D
Nous avons le droit d'exiger
Bb             C       D
Oui
nous sommes l'electorat
Bb         F                   D
Et nous avons donc tous les droits

Dm                Bb                    Cadd2
---------------------------------------------------------------------
-----3---------------------3---------------------3-------------------
-----2---------------------3---------------------0-------------------
-----0----0--------0-------0----0--------0-------0--0-----------0----
-------------3--4----------1-------3--4----------3------3---4--------
---------------------------------------------------------------------
Plus fort
plus fort            Encore encore et toujours

Dm                                    Bb
---------------------------------------------------------------------
-------3------------------3---------------------3--------------------
-------2------------------2---------------------3--------------------
-------0--0--------0------0----0--------0-------0---0--------0-------
-------------3--4-----------------3--4----------1------3--4----------
---------------------------------------------------------------------
encore              plus fort             plus fort           pour nos

Cadd2                             Dm
----------------------------------------------------------1----------
--3-----------------------------3-------------------------3----------
--0-----------------------------2-------------------------2-2-2-2-2--
--0---0-------------0-----------0--0--------0-------------0-0-0-0-0--
--3------3---4------------------------3--4---------------------------
---------------------------------------------------------------------
sens et nos ventres et nos corps              plus fort

Bb                        F

Retour...