Jean-Jacques Goldman: Compte pas sur moi


Album : Non homologué

Capodastre a la case 3 (tobalite originale Gm)

Jouer deux fois:
Em
------------------------------------------------------------------------
------------------------------------------------------------------------
----------0-----2-----------0-----------------0-----2רר0----------------
----0רר2-----2--------0רר2-----0רר2-----0רר2-----2--------4רר2--4רר2--0-
------------------------------------------------------------------------
-0--------0--------0--------0--------0--------0--------0--------0-------

C
---------------------------------------------------------------------------
---------------------------------------------------------------------------
----------0-----2--------------0-----------------0-----2רר0----------------
----0רר2-----2--------0רר2--------0רר2-----0רר2-----2--------4רר2--4רר2--0-
-3--------3--------3--------3-----------3--------3--------3--------3-------
---------------------------------------------------------------------------

Am
------------------------------------------------------------------------
------------------------------------------------------------------------
----------0-----2-----------0-----------------0-----2רר0----------------
----0רר2-----2--------0רר2-----0רר2-----0רר2-----2--------4רר2--4רר2--0-
-0--------0--------0--------0--------0--------0--------0--------0-------
------------------------------------------------------------------------

C                                   D
------------------------------------------------------------------------
------------------------------------------------------------------------
----------0-----2-----------0-----------------0-----2רר0----------------
----0רר2-----2--------0רר2-----0רר2-----0רר2-----2--------4רר2--4רר2--0-
-3--------3--------3--------3--------5--------5--------5--------5-------
------------------------------------------------------------------------

Puis jouer deux fois: E D C Em

Puis jouer deux fois:
C                                   D
------------------------------------------------------------------------
------------------------------------------------------------------------
----------0-----2-----------0-----------------0-----2רר0----------------
----0רר2-----2--------0רר2-----0רר2-----0רר2-----2--------4רר2--4רר2--2-
-3--------3--------3--------3--------5--------5--------5--------5-------
------------------------------------------------------------------------

Puis jouer : E D C Em

Puis jouer:
Em    C                 D
----------------------------------------0-------------------------------
-0--0-----------------------------3-------------------------------------
-0--2-----------0-----2-----2--4-----4----------------------------------
-2--1-----0רר2-----2-----0--------0--------0----------------------------
-2--2--3--------3-------------------------------------------------------
-0--0--0----------------------------------------------------------------

Em      Am        D          Em       C
Oublier d'ou je viens
ma memoire et les miens
D         Em
Non
non
non
non
non
Am       D             Em      C
Endosser pour faire bien les nouveaux lieux communs
D         Em
Non
non
non
non
non
C           G                   D     Em7      C
Penser qu'on a moins tort quand on hurle plus fort
G         D
Non
non
non
non
non


A7            C6       D           Em
Oh t'en trouveras des tas pour chanter ces choses-la
C               D         C
Alors
comptes pas trop sur moi
D                  E D C Em E D C Em
Compte pas sur moi

C                                                     D
------------------------------------------------------------------------
------------------------------------------------------------------------
----------0-----2-----------0-----------------0-----2רר0----------------
----0רר2-----2--------0רר2-----0רר2-----0רר2-----2--------4רר2--4רר2--0-
-3--------3--------3--------3--------3--------3--------5--------5-------
------------------------------------------------------------------------

Em          Am       D           Em      C
Des scandales en gros plan sur l'empire de mes sens
D         Em
Non
non
non
non
non
Am       D               Em        C
Des jurons
des slogans
toutes ces fausses insolences
D         Em
Non
non
non
non
non
C           G                 D       Em7   C
Des looks
ces uniformes qui font marcher au pas
G         D
Non
non
non
non
non


A7            C6       D            Em
Oh t'en trouveras des tas pour te faire ces plans-la
C               D         C
Alors
comptes pas trop sur moi
D                  E D C Em E D C Em
Compte pas sur moi

Jouer deux fois:
C                                   D
------------------------------------------------------------------------
------------------------------------------------------------------------
----------0-----2-----------0-----------------0-----2רר0----------------
----0רר2-----2--------0רר2-----0רר2-----0רר2-----2--------4רר2--4רר2--0-
-3--------3--------3--------3--------5--------5--------5--------5-------
------------------------------------------------------------------------

G              C          D               G
Y'en a des bien plus gros
des bien plus respectables"
C              D              G
Moins ringards et retros
des bien plus presentables
Em          Am           D7     Em
Qui visiblement parlent a la posterite
C           Em         C     D7/4
Loin de mon ephemere et ma futilite
G         C         D        G
Des grands
des createurs
avec une majuscule
C         D             G
Loin de tout quotidien
sans le moindre calcul!
Em           Am             D7           Em
Les rockers engages sont nos derniers des justes
C                      Em       C             C/D D7
Ils nous sauvent peut-etre pendant qu'on s'amuse


Em          Am    D      Em  C
Des medailles en pseudo respectabilite
D         Em
Non
non
non
non
non
Am       D            Em    C
Me baisser pour quelques caresses autorisees
D         Em
Non
non
non
non
non
C         G           D         Em7      C
Quand la partie sera finie
tirer les penalties
G         D
Non
non
non
non
non


A7           C6
Des comme ca
t'en trouveras
D          Em
Jure
t'en manqueras pas
C               D         C
Alors
comptes pas trop sur moi
D                  E D C Em E D C Em
Compte pas sur moi

C                                   D
------------------------------------------------------------------------
------------------------------------------------------------------------
----------0-----2-----------0-----------------0-----2רר0----------------
----0רר2-----2--------0רר2-----0רר2-----0רר2-----2--------4רר2--4רר2--0-
-3--------3--------3--------3--------5--------5--------5--------5-------
------------------------------------------------------------------------

Repeter: G C D G     (accords du pont)
G C D G
Em Am D7 Em C Em C D7/4

Retour...