Jean-Jacques Goldman: Encore un matin


Fichier MIDI
Riff sur l'accord Bm:
Bm
------------------------------------------------------------
------------------------------------------------------------
----4--4--4-----4-------------------------------------------
-4--4--4--4-2h4---------------------------------------------
-2----------------------------------------------------------
------------------------------------------------------------


Bm


Encore un matin
Un matin pour rien
G               A            Bm
Une argile au creux de mes mains
Encore un matin
Sans raison ni fin
G             A          Bm
Si rien ne trace son chemin


Em          F#m         Bm
Matin pour donner ou bien matin pour prendre
Em         F#m            Bm
Pour oublier ou pour apprendre
Em         F#m          Bm
Matin pour aimer
maudire ou mepriser
G                 A
Laisser tomber ou resister


Bm
Encore un matin
Qui cherche et qui doute
G             A             Bm
Matin perdu cherche une route
Encore un matin
Du pire ou du mieux
G                   F#m  A
A eteindre ou mettre le feu


G           A       Bm Bm A G F#
Un matin
ca ne sert a rien
G
Un matin
A        Bm Bm A G F#
Sans un coup de main
G
Ce matin
A               Bm Bm A G F#
C'est le mien
c'est le tien
G        F#m
Un matin de rien
G
Pour en faire
A                   Bm
Un reve plus loin


Encore un matin
Ou juge ou coupable
G               A            Bm
Ou bien victime ou bien capable
Encore un matin
ami
ennemi
G          A
Entre la raison et l'envie
Em        F#m      Bm
Matin pour agir ou attendre la chance
Em        F#m          Bm
Ou bousculer les evidences
Em      F#m      Bm
Matin innocence
matin intelligence
G                A
C'est toi qui decide du sens


G           A       Bm Bm A G F#
Un matin
ca ne sert a rien
G
Un matin
A        Bm Bm A G F#
Sans un coup de main
G
Ce matin
A               Bm Bm A G F#
C'est le mien
c'est le tien
G        F#m
Un matin de rien
G
Pour en faire
A                   Bm
Un reve plus loin


repeter trois fois:
Bm7
-------------------------------------------------0----------
----------0-----------------------0--------0----------------
-------2-----------2-----------2-----2--------2-------------
----4--------4--------4-----4-----------4-------------------
-2--------------2--------2----------------------------------
------------------------------------------------------------


G           A       Bm Bm A G F#
Un matin
ca ne sert a rien
G
Un matin
A        Bm Bm A G F#
Sans un coup de main
G
Ce matin
A               Bm Bm A G F#
C'est le mien
c'est le tien
G        F#m
Un matin de rien
G
Pour en faire
A                   Bm
Un reve plus loin

------------------------------------------------------------
-----------------------3------------------------------------
-----------------2--4-----------2---------------------------
--4-----------------------2--4-----0--2---------------------
--2--------------------------------------4--5--0------------
--------------------------------------------------7--5--7---
Encore un matin

Retour...