Envole-moi

Jean-Jacques Goldman


Bm                                         A/B           Bm
-2------------------------------------------0-------------2--------
-3------------------------------------------2-------------3--------
-------------------------------------------------------------------
-------------------------------------------------------------------
-2--2-2-2--2-2-2--2-2-2---2-2-2--2-2-2--2-2-2--2-2-2--2-2-2--2-2-2-
-------------------------------------------------------------------

A/B           G             A/B
---------------------------------0--------------------------------
---------------------------------2-------------3-------------2----
-----------------------------------------------0-------------2----
------------------------------------------------------------------
-2-2-2--2-2-2--2-2-2--2-2-2--2-2-2--2-2-2--2-2-2--2-2-2--2-2-2--2-
------------------------------------------------------------------

B                                         B7
------------------------------------------------------------------
----------------7--------------------7--------------------7-------
----------8רר9-----9רר8--------8רר9-----9רר8--------8רר9-----9רר8-
-------9-----------------9--------------------9-------------------
-2--2--------------------------------------------0--------0-------
-------7--------7-----------7--------7----------------------------

Em
------------------------------------------------------------------
-------------7-----------------7רר8רר7--------------7רר8רר7-------
-------8רר9-----9רר8--------9-----------9--------9-----------9----
-9--------------------9--------------------9--------------------9-
----0--------0-----------7--------7-----------7--------7----------
------------------------------------------------------------------

B7
-------------------------------------------7---------------------
----7רר8--10רר8--7--------7רר8--10רר8רר10--------7רר8--10רר8רר10-
-----------------------------------------------------------------
--------------------9--------------------------------------------
-----------------------------------------------------------------
-7---------7-----------7---------7------------7---------7--------

-7----------------------------------------------------------------
------------------------------------------------------------------
------------------------------------------------------------------
------------------------------------------------------------------
------------------------------------------------------------------
----7--7----------------------------------------------------------

Bm      A/B      Bm
Minuit se leve en haut des tours
A/B     G                 A/B              Bm
Les voix se taisent et tout devient aveugle et sourd
A/B    Bm          A/B      Bm
La nuit camoufle pour quelques heures
A/B  G                     A/B   Bm
La zone sale et les epaves et la laideur


A            Bm A          Bm
J'ai pas choisi de naitre ici
G             A/B             Bm
Entre l'ignorance et la violence et l'ennui
A        Bm     A        Bm
J'm'en sortirai
j'me le promet
G                  A/B        B
Et s'il le faut
j'emploierai des moyens legaux

B                                         B7
------------------------------------------------------------------
----------7--------------------7--------------------7-------------
----8רר9-----9רר8--------8רר9-----9רר8--------8רר9-----9רר8-------
-9-----------------9--------------------9--------------------9----
-------------------------------------------0--------0-----------0-
-7--------7-----------7--------7----------------------------------

Em
---------------------------------------------------------------
-------7-----------------7רר8רר7--------------7רר8רר7----------
-8רר9-----9רר8--------9-----------9--------9-----------9-------
----------------9--------------------9--------------------9----
-------0-----------7--------7-----------7--------7-------------
-------------------------------------------------------------7-

------------------------------------------------------------------
-7רר8--10רר8--7--------7רר8--10--8רר7-----------------------------
------------------------------------------------------------------
-----------------9---------------------9--------------------------
------------------------------------------------------------------
--------7-----------7---------7-----------------------------------

Em         C          Am
Envole-moi envole-moi envole-moi
C        D              Em
Loin de cette fatalite qui colle a ma peau
C          Am
Envole-moi envole-moi
C             D                  A
Remplis ma tete d'autres horizons
d'autres mots
Em  B
Envole-moi


Bm      A/B  Bm
Pas de question ni rebellion
A/B    G               A/B            Bm
Regles du jeu fixees mais les des sont pipes
A/B     Bm     A/B   Bm
L'hiver est glace
l'ete est feu
A/B G                    A/B       Bm
Ici
y'a jamais de saison pour etre mieux


A            Bm A          Bm
J'ai pas choisi de vivre ici
G                   A/B      Bm
Entre la soumission
la peur ou l'abandon
A        Bm     A        Bm
J'm'en sortirai
je te le jure
G                 A/B      B
A coup de livres
je franchirai tous ces murs

B                                         B7
------------------------------------------------------------------
----------7--------------------7--------------------7-------------
----8רר9-----9רר8--------8רר9-----9רר8--------8רר9-----9רר8-------
-9-----------------9--------------------9--------------------9----
-------------------------------------------0--------0-----------0-
-7--------7-----------7--------7----------------------------------

Em
---------------------------------------------------------------
-------7-----------------7רר8רר7--------------7רר8רר7----------
-8רר9-----9רר8--------9-----------9--------9-----------9-------
----------------9--------------------9--------------------9----
-------0-----------7--------7-----------7--------7-------------
-------------------------------------------------------------7-

------------------------------------------------------------------
-7רר8--10רר8--7--------7רר8--10--8רר7-----------------------------
------------------------------------------------------------------
-----------------9---------------------9--------------------------
------------------------------------------------------------------
--------7-----------7---------7-----------------------------------

Em         C          Am
Envole-moi envole-moi envole-moi
C        D              Em
Loin de cette fatalite qui colle a ma peau
C          Am
Envole-moi envole-moi
C             D                  A
Remplis ma tete d'autres horizons
d'autres mots
Em  B
Envole-moi


Em         C           Am
Me laisse pas la
emmene-moi
envole-moi
C                D            Em
Croiser d'autres yeux qui ne se resignent pas
C                Am
Envole-moi
tire-moi de la
C         D                    A
Montre-moi ces autres vies que je ne sais pas
Em          C           Am
Envole-moi
envole-moi
envole-moi
C               D              Em
Regarde-moi bien
je ne leur ressemble pas
C          Am
Me laisse pas la
envole-moi
C            D                   A
Avec ou sans toi
je n'finirai pas comme ca
Em          C           Am
Envole-moi
envole-moi
envole-moi...

Repeter les accords du refrain: Em C Am C D
Em C Am C D
A Em B