Jean-Jacques Goldman: Dors bébé dors


Jean-Jacques Goldman: Dors bebe dors

Intro:
G                                   C           G
----------------3------------------------------------------------3-------
-0--------------------------0-----------0--1-----0-----------------------
----------0-----------0-----------0--2---------------------0-----------0-
-------0-----------0-----------0-----------2------------0-----------0----
-------------------------------------3-----------------------------------
-3-----------3-----------3-----------------------3------------3----------

C           G                                   Bm7
----------------------------------------3--------------------------0----
----0-----------0--1-----0--------------------------0-----------0-------
----------0--2--------------------0-----------0--------------2----------
-------0-----------2-----------0-----------0-----------0-----------0----
-------------3----------------------------------------------------------
-3-----------------------3-----------3-----------3-----------2----------

Em                                  D           C
-0--------------0-------------------------------------------------------
-------------------------------------0--------------------1-----------0-
----------0-----------0-----------0-----202--0-----------------2----
-------2-----------2--------02-----0-----------------2--------0-------
-------------------------------------------------3-----------3----------
-0-----------0-----------0----------------------------------------------

D
------------------------------------------------------------------------
-1--0-------------------------------------------------------------------
-------------2--0-------------------------------------------------------
-------0-----------0----------------------------------------------------
------------------------------------------------------------------------
-2-----------2----------------------------------------------------------



G     C     G
Dors
bebe
dors
C     G        C       G
Bebe
dors
il pleut dehors
C      G    Bm7
Dors encore


Em     C     Em
Dors
bebe
dors
C     Em        C       Em
Bebe
dors
il pleut dehors
C      Em
Dors encore


D         C
Il n'est pas tard et le matin
Dsus4    G                C
S'est perdu sur son chemin
Em7     Am7               G
Il nous reste quelques heures
C           Dsus4
Avant que la nuit ne meure


G     C          G
Dors
mon amour
dors
C          G        C     G
Mon amour
dors
il pleut dehors
C      G    Bm7
Dors encore


Em     C          Em
Dors
mon amour
dors
C          Em       C     Em
Mon amour
dors
il pleut dehors
C      Em
Dors encore


D         C
Il n'est pas tout a fait demain
Dsus4   G              C
Rien ne presse ce matin
Em7     Am7               G
Il nous reste quelques heures
C         Dsus4
De quietude et de tiedeur


Eb                     F      G
Et moi j'ecoute les bruits de vos silences
Eb                F            G
Dans notre ilt de chaleur et de confiance
D        Em          Dsus4            C
Quand le soleil sera la
vous partirez
G     C G
Parce que c'est comme ca


Bb
Autre part
autres combats
Am7
D'autres que je ne connais pas
Ab7M
Et je guetterai vos pas


G     C     G
Dors
bebe
dors
C     G        C       G
Bebe
dors
il pleut dehors
C      G    Bm7
Dors encore


Em     C     Em
Dors
bebe
dors
C     Em        C       Em
Bebe
dors
il pleut dehors
C      Em
Dors encore


D       C
C'est tout juste l'aube et demain
Dsus4  G               C
Paresse un peu ce matin
Em7     Am7                G
Et moi
pendant que je veille
C          Dsus4
Je surveille vos sommeils
C                 G     Am7
Si vous saviez comme vos sommeils
Dsus4        G       C G
Veillent sur mes trop longues veilles



Retour...