Jean-Jacques Goldman: Plus fort


  • L'auteur de cette retranscription est Renaud Bermond.
    remarque : !=1/2 croche
    /= 1 pause
    
    intro harmonique
    
    !   !                 !          !   !
    E --------------------------------------------------------------------------
    B --------------------------------------------------------------------------
    G --------------------------------------------------------------------------
    D --0-0-------0--0---0-------0----3-0---0-------0--0---0-------0----3-0-----
    A -------3-4------------3-4----0-----------3-4------------3-4----0----------
    E --------------------------------------------------------------------------
    
    
    E -----------------------------------------------------------0----0----0----0---
    B -3----3----3--3-----3----3----3----3----3----3----3--3-----3----3----3----3---
    G -2----2----2--2-----0----0----0----0----3----3----3--3-----0----0----0----0---
    D -0-0-------0----0-----0-------0----3-0----0-------0----0-----0-------0----3-0-
    A ------3-4----------------3-4----0------------3-4----------------3-4----0------
    E ------------------------------------------------------------------------------
    
    /                    /                    /                    /
    E -----------------------0----------0-----------------------------------------0--
    B -3----------3----------1----------1----------3--------------------3---------1--
    G -3----------3----------0----------0----------3--------------------3---------0--
    D -3----------3----------2----------2----------3--------------------3---------2--
    A -1----------1----------3----------3---------------------0---------1---------3--
    E ---------------------------------------------3---------------------------------
    on...
    D
    E I---2---------------------------------------------------------------------------------
    B I.--3---------------------------------------------------------------------------------
    G I---2--2---2-2--2-2---2-2----2-2--2-2--2--2--2-2-----2---------2--2-----------2--2-2--
    D I---0--0---0-0--0-0---0-0----0-0--0-0--0--0--0-0---0-0-------0-0--0-0-------0-0--0-0--
    A I.------------------------------------------------------3-4------------3-4------------
    E I-------------------------------------------------------------------------------------
    veut...                        ...plus haut                               et des
    
    E -------------------------------------------------------------------------2-2--
    B -------------------------------------------------------------------------3-3--
    G -2-2--2-2--2-2--2-2---2-2--2-2--2-2--2-2-----2---------2--2-----------2--2-2--
    D -0-0--0-0--0-0--0-0---0-0--0-0--0-0--0-0---0-0-------0-0--0-0-------0-0--0-0--
    A ------------------------------------------------3-4------------3-4------------
    E ------------------------------------------------------------------------------
    supermachins...                 ...loin                              on veut...
    
    G
    E -3-----------------------------------------------------------------------------0-0--
    B -0-----------------------------------------------------------------------------0-0--
    G -0-------------------------------------------0---------0--0-------0---------0--0-0--
    D -0-0--0-0--0-0--0-0---0-0--0-0--0-0--0-0---0-0-------0-0--0-0---0-0-------0-0-------
    A -2-2--2-2--2-2--2-2---2-2--2-2--2-2--2-2--------3-4------------------3-4------------
    E -3-3--3-3--3-3--3-3---3-3--3-3--3-3--3-3--------------------------------------------
    du neuf..                  ...vite                                           avec...
    
    D
    E ----------------------------------------------------------------------------------
    B ----------------------------------------------------------------------------------
    G -2-2--2-2--2-2--2-2---2-2--2-2--2-2--2-2-----2---------2--2-------2---------2--2--
    D -0-0--0-0--0-0--0-0---0-0--0-0--0-0--0-0---0-0-------0-0--0-0---0-0-------0-0--0--
    A ------------------------------------------------3-4------------------3-4----------
    E ----------------------------------------------------------------------------------
    plus de..               ...d'effort                                           a...
    
    B     C     D                  B     C      D                  B     C
    E -------0------2------------------------0------2------------------------0-----
    B -3-----1------3------------------3-----1------3------------------3-----1-----
    G -3-----0------2-2--2-2--2-2------3-----0------2-2--2-2--2-2------3-----0-----
    D -3-----2------0-0--0-0--0-0--0---3-----2------0-0--0-0--0-0--0---3-----2-----
    A -1--1--3--3----------------------1--1--3--3----------------------1--1--3--3--
    E -----------------------------------------------------------------------------
    pres tout ...                                                 ... d'exiger
    
    D                    B     C      D                    B            C
    E -2--------------------------0------2---------------------------------0-----------
    B -3--------------------3-----1------3--------------------3-----1------1-----------
    G -2-2--2-2--2-2--2-2---3-----0------2-2--2-2--2-2--2-2---3-----2------0--0--0--0--
    D -0-0--0-0--0-0--0-0---3-----2------0-0--0-0--0-0--0-0---3-----3------2--2--2--2--
    A ----------------------1--1--3--3------------------------1--1--3------3--3--3--3--
    E --------------------------------------------------------------1--1---------------
    et..                               ...satisfaire
    
    Refrain
    !       !         !  !          !  !          !  !          !  !          !
    E ---------------------------------------------------------------------------------------
    B ----------3-----------------3-------------3-------------3-------------3-------------3--
    G ----------2-----------------3-------------0-------------2-------------2-------------3--
    D -0--0--0--0------0-------0--0--0-------0--0--0-------0--0--0-------0--0--0--3-4--0--0--
    A -2--2--2------------3-4-----1-----3-4-----3-----3-4-----------3-4-------------------1--
    E -3--3--3-------------------------------------------------------------------------------
    plus fort         plus fort     encore...                           plus fort
    
    al coda Dm           B
    E ----------------------------------1--------------------1--------------------
    B ------------3---------3-----------3--------------------3--------------------
    G ------------0---------2-----------2-2--2-2--2-2--2-2---3--------------------
    D -0-------0--0--0------0--0--------0-0--0-0--0-0--0-0---3-3--3-3--3-3--3-3---
    A ----3-4-----3-----3-4------3-4-------------------------1-1--1-1--1-1--1-1---
    E ----------------------------------------------------------------------------
    pour nos...                                  ...plus grand plus...
    
    
    F                    C                         fin
    E -1--------------------0-------------------------I
    B -1--------------------1-------------------------I
    G -2--------------------0-------------------------I
    D -3--------------------2-2--2-2--2-2--2-2--------I
    A -3-3--3-3--3-3--3-3---3-3--3-3--3-3--3-3--------I
    E -1-1--1-1--1-1--1-1-----------------------------I
    on veut...
    
    
    °CODA
    
    Dm                   B                    C                    G             B           au refrain
    E -1--------------------1--------------------0-----------------------------------------------I
    B -3--------------------3--------------------1--------------------3----------------------3---I
    G -2-2--2-2--2-2--2-2---3--------------------0--------------------3----------------------2---I
    D -0-0--0-0--0-0--0-0---3-3--3-3--3-3--3-3---2-2--2-2--2-2--2-2---5------------3-3--3-3--0---I
    A ----------------------1-1--1-1--1-1--1-1---3-3--3-3--3-3--3-3---5-5--5-5--0--1-1--1-1------I
    E ----------------------------------------------------------------3-3--3-3-------------------I
    plus fort...             plus grand ...                               plus fort
    
    


    Retour