Jean-Jacques Goldman: Entre gris clair et gris foncé


  • L'auteur de cette retranscription est Renaud Bermond.
    Intro
    D7                                           G        D
    E -------------------------------------------I--7------5--5------0----2----3--2----0----
    B -------------------------------------------I--8------7--7------2----3----5--3----2----
    G ---5--5----5-5----5---5----5-5----5----5--.I.-7------7--7------2----2----4--2----2----
    D -7-5--5-7--5-5--7-5---5-7--5-5--7-5--7-5---I--0-0--0-0--0-0--0-0--0-0--0-0--0-0--0-0--
    A -5------5-------5-------5-------5----5----.I.-----------------------------------------
    E -------------------------------------------I------------------------------------------
    ^ v  ^ v
    
    G     Bm7            G         D  A          D                            A
    E -7----5--5------------3-2--0----2--0-------I--2------------------2---------0----0----
    B -8----3--3------3-----3------3--3--2------.I.-3----3---3----3----3----3----2----2----
    G -7--------------------0---------2--2-------I--2----2---2----2----2----2----2----2----
    D ------4--4---------------------------------I--0-0---0----0----0--0-0----0------------
    A ------2--2-2--2-----------------0--0------.I.------------------------------0-0--0-0--
    E -7-7--7---------------3--------------------I-----------------------------------------
    Décolorés les .....          ..ciel
    
    Bm                                D           G
    E -2---------------------2---------2----2-------3--------------------3----------3----3---
    B -3-----3----3----3-----3----3----3----3-------3----3----3----3-----3-----3----3----3---
    G -4-----4----4----4-----4----4----2----2-------4----4----4----4-----4-----4----4----4---
    D ---------------------------------------------------------------------------------------
    A --2-2----2----2----2---2-2----2--2-2--2-2----------------------------------------------
    E ----------------------------------------------3-3----3----3----3---3-3-----3--3-3--3-3-
    les evidences...                                                           ...des enfers
    
    D                                    A       D                                 A
    E -2--------------------2----------0----0-------2--------------------2----------0----0---
    B -3----3----3----3-----3----3-----3----2-------3----3----3----3-----3-----3----2----2---
    G -2----2----2----2-----2----2-----2----2-------2----2----2----2-----2-----2----2----2---
    D ----------------------------------------------0-0----0----0----0---0-0-----0--0-0--0-0-
    A -0-0----0----0----0-----0----0---0-0----0----------------------------------------------
    E ---------------------------------------------------------------------------------------
    l'eden...                                                              ...des étendards
    
    Bm                             D         G
    E -2-------------------2----------2----2----3-------------------3----3----3----3----
    B -3----3----3----3----3----3-----3----3----3----3----3----3----3----3----3----3----
    G -4----4----4----4----4----4-----2----2----4----4----4----4----4----4----4----4----
    D ----------------------------------------------------------------------------------
    A -2-2----2----2----2----2-----2----------------------------------------------------
    E --------------------------------2-2--2-2--3-3----3----3----3--3-3--3-3--3-3--3-3--
    brulé le...                                                      ...qui croient
    
    D                                   A      G            A                Bm
    E -2-------------------2---------------0-----3--------3---0---------0-------2-------
    B -3----3----3----3----2----3----3-----2-----3--------3---2---------2-------3-------
    G -2----2----2----2----2----2----2-----2-----4--------4---2---------2-------4-------
    D -------------------------------------------5--------5---2---2--2----------4--4--4-
    A -0-0----0----0----0--0-0----0----0---0-0---5---5-5------0---0--0----------2--2--2-
    E -------------------------------------------3---3-3--------------------------------
    ce repos...                            ...hou..                         ...hou..
    
    
    G          C     G                  D          A
    E -3--------3-----------------7---------2---------0---------0---------I
    B -0--------0--1---0--0---0---8---------3---------3---------2--------.I
    G -0--------0--0---0--0---0---7---------2---------2---------2---------I
    D -0--------0--2---0--0---0-------------------------------------------I
    A -2--2--2--------------------0-0--0-0--0-0--0-0--0-0--0-0--0-0--0-0-.I
    E -3--3--3-----3----------3-------------------------------------------I
    ...hou...                                               ...hou.
    
    
    
    Refrain
    
    G       D                                  G       Bm7          G        D   A
    E -7------5--5------0-----2----3--2----0-----7------5--5---------3-2--0----2--0------
    B -8------7--7------2-----3----5--3----2-----8------3--3-----3---3---------3--2------
    G -7------7--7------2-----2----4--2----2-----7-------------------0------3--2--2------
    D -0-0--0-0--0-0--0-0---0-0--0-0--0-0--0-0----------4--4-----------------------------
    A --------------------------------------------------2--2-------------------0--0------
    E -------------------------------------------7-7--7------2--2----3-------------------
    oublié...                                               ...oublié...
    
    G       D                               G      Bm7           G        D    A
    E -7------5--5------0----2----3--2----0----7------5--5----------3-2--0----2--0-------
    B -8------7--7------2----3----5--3----2----8------3--3------3---3------3--3--2-------
    G -7------7--7------2----2----4--2----2----7--------------------0---------2--2-------
    D -0-0--0-0--0-0--0-0--0-0--0-0--0-0--0-0---------4--4-------------------------------
    A ------------------------------------------------2--2-2--2---------------0--0-------
    E -----------------------------------------7-7--7---------------3--------------------
    délavées...                                                 ...et gris foncé
    
    
    D                     G        D    A
    E -3------2--2-----------3-2--0----2---0----I
    B -3------3--3-------3---3------3--3---2----I
    G -2------2--2-----------0---------2---2----I
    D -0-0--0-0--0--0--0------------------------I
    A ---------------------------------0---0----I
    E -----------------------3------------------I
    
    


    Retour