Jean-Jacques Goldman: Peur de rien blues


Cm Gm

Y'a les choses qu'on peut faire

Cm Gm

Et puis celles qu'on doit pas

Cm Gm

Y'a tout c'qu'on doit taire

Cm Gm

Tout c'qui ne se dit pas

Fm Bb

Des vies qui nous attirent

Fm Bb

De brulures et de clous

Cm Gm

Oui mais ne pas les vivre

Cm Cm

C'est encore pire que tout.

Gm Gm

De sagesse en derive

Fm Bb

De regrets en degout

Cm Fm Gm

Y'a qu'une guitare a la main

 

Qu'j'ai peur de rien.

 

 

 

|--------------------|--------------------------

|-----(11)-b11-11-8--|--11-sb11/\/\/\/\---------

|--------------------|-------------------8/10---

|--------------------|--------------------------

|--------------------|--------------------------

|--------------------|--------------------------

 

|-----------------------------|-----------------------------------------------

|------------8----------------|-----------------------------------------------

|------------8----------------|------------------8--10--b10-10-8-10-(8)-(8)-10

|---10------------------------|--------8-(8)/10-------------------------------

|---------------(10)/8--6/\/\-|--8/10-----------------------------------------

|-----------------------------|-----------------------------------------------

 

|---------------8------------------------------------------------

|-------------8--------------------------------------------11-13-

|-----------8-------------------------------------(10)/12--------

|--(10)-b10--------(10)-b10-10-8-----8-8-------------------------

|---------------------------------10-----10/\/\X-----------------

|----------------------------------------------------------------

 

 

|----------11\0-|-(13)-b13/\/\---11-13----|-----------------------------|------

|-(11)-13-------|----------------------13-|-13/\/\----------------------|------

|---------------|-------------------------|-------b10-10-8-10-8(b/4)----|------

|---------------|-------------------------|---------------------10-8-10-|-10/\-

|---------------|-------------------------|-----------------------------|------

|---------------|-------------------------|-----------------------------|------

 

 

 

couplet (same chords as the first) :

 

Quand les juges deliberent

Si j'fais mal ou j'fait bien

Si j'suis vraiment sincere  

Moi j'sais meme plus tres bien  

Quand les rumeurs "viperent"  

Quand l'image deteint  

Il m'reste ce vrai mystere  

Et ca ca m'appartient. 

 

Quand je frole la lumiere

Qu'un instant je la tiens

Avec ma guitare a la main

J'ai peur de rien

 

 (derniere mesure du couplet) son sature

 

|-------------------------|----------------------------11----|

|----------------13-------|-13/\/\-13-11----11-13/\/\-----13-|

|-------(10)/12-------12--|--------------12------------------|

|--/10--------------------|----------------------------------|

|-------------------------|----------------------------------|

|-------------------------|----------------------------------|

 

|-(11)-b11-(11)-b11/\/\--11-10-----------------------|

|------------------------------13/\/\-13/\/\------13-|

|-------------------------------------------10-12----|

|----------------------------------------------------|

|----------------------------------------------------|

|----------------------------------------------------|

 

 

|--------------------------------------------------11-13-11-|

|-(11)/13--(11)/13/\/\--11-13-11--11-11/\/\-(11)-13---------|

|-------------------------------12--------------------------|

|-----------------------------------------------------------|

|-----------------------------------------------------------|

|-----------------------------------------------------------|

 

|-13-b13/\/\-b13/\(13)-b13\/\----20-20-|-(18)-b18-(18)-b18/\/\--20-18--18-20-

|----------------------------X/20------|-----------------------------20------

|--------------------------------------|-------------------------------------

|--------------------------------------|-------------------------------------

|--------------------------------------|-------------------------------------

|--------------------------------------|-------------------------------------

 

--------20-|-(18)-b18--(18)-b18-18-15------------------------------------15-16

-(18)-20---|-------------------------(18)-b18-18-16-18-(18)-b18-18------18----

-----------|------------------------------------------------------17-17/\-----

-----------|------------------------------------------------------------------

-----------|------------------------------------------------------------------

-----------|------------------------------------------------------------------

 

|18-20-20/\/------15-16-18-20-20/\/\--20-19-20|-(20)b20-(20)b20-(20)b20-(20)b20

|------------16-18----------------------------|--------------------------------

|----------17---------------------------------|--------------------------------

|---------------------------------------------|--------------------------------

|---------------------------------------------|--------------------------------

|---------------------------------------------|--------------------------------

 

( BREAK )

 

Y'a les choses qu'on pense

Qu'on voyait pas comme ca

Mais on garde le silence

Et on presse le pas

 

Des regards qu'on detourne

Des gestes qu'on fait pas

La conscience un peu sourde

 

Et pas tres fier de soi.

Quand la dose est trop lourde

Quand le blues va un peu loin

 

J'prends ma guitare a la main

Et j'ai peur de rien.

 

 

(from now there are two guitars: G1 and G2)

 

(derniere mesure du couplet)

 

|-------------------18-|----------------------------((G1))---------|

|------15-16-18-sb18---|-18-b18/\/\-------------------b18-18-16-18-|

|-15-17----------------|-------((G2))--8-(10)-b10-10---------------|

|----------------------|------------6-8----------------------------|

|----------------------|-------------------------------------------|

|----------------------|-------------------------------------------|

 

 

((G1)) ((G2)) ((G1))

|-------------------------------|-18-sb(18)-b18/\-------(18)b18---------------|

|-16-sb(16)----------((G2))-----|----------------(6)/8-11------(20)\18-16(b/4)|

|----------17-17/\/\---8--------|---------------------------------------------|

|------------------------10-10\8|---------------------------------------------|

|-------------------------------|---------------------------------------------|

|-------------------------------|---------------------------------------------|

 

|-------------------------------------------|

|-----((G2))------------((G1))--------------|

|-17/\--(10)b10-10-8--10---15/\/\-(12)\10-8-|

|-------------------10----------------------|

|-------------------------------------------|

|-------------------------------------------|

 

|-------------------------------------|-((G1))-8-11-8---------------------|

|----------((G2))---------------------|-11-b11-------(11)b11-11-8-11--8---|

|-(8)-10/\/\----8-(10)b10-10-8-10/\/\-|-----------------------------10--8-|

|-----------8-10----------------------|-----------------------------------|

|-------------------------------------|-----------------------------------|

|-------------------------------------|-----------------------------------|

 

|---------------------------------|--------------------------------------------|

|--------8------------------------|-----------------------11----11-------------|

|-(10)b10-8(b/4)----------------8-|----------8-10-(10)b10-(10)b10-(10)b10-10b10|

|-------------10-8-10/\/-8\X---8--|-10/\(8)/10---------------------------------|

|--------------------------8-10---|--------------------------------------------|

|---------------------------------|--------------------------------------------|

 

|------------------------------------|----------------------------------|

|------------------------------------|--------8-11----------------------|

|-(10)b10--b10-10-8-10-(8)-10/\/--\X-|-(10)b10----(10)b10-10-8-10/\/-\X-|

|------------------------------------|----------------------------------|

|------------------------------------|----------------------------------|

|------------------------------------|----------------------------------|

 

 

|-----------------------------------|------------------------------|

|------11---------------------------|------------------------11-13-|

|-(10)b10--10-8----8----------8-----|-----------------(10)-12------|

|--------------(8)-10-8------8-10-8-|-10/\/-8-10-8/\/X-------------|

|----------------------8-6-10-------|------------------------------|

|-----------------------------------|------------------------------|

 

|------------11-----|(13)b13--(13)b13-(13)b13-(13)b13/(Vib)-(13)b13-13-11-13-11|

|-(11)b13/\/---13/\/|----------------------------------------------------------|

|-------------------|----------------------------------------------------------|

|-------------------|----------------------------------------------------------|

|-------------------|----------------------------------------------------------|

|-------------------|----------------------------------------------------------|

 

 

|-----------------8-------------------------|

|-13/\/\/--------8--8-11-8------------------|

|--------(10)b10----------11-10-8-----------|

|--------------------------------10---------|

|-------------------------------------------|

|-------------------------------------------|

 

 

|--------------------------------------------------------------|

|----------------------------------------------8-11----------8-|

|-10-8--------8-(10)b10-(10)b10-(10)b10-(10)b10----(10)b10\X---|

|-----10--8-10-------------------------------------------------|

|--------------------------------------------------------------|

|--------------------------------------------------------------|

 

Cm 335543

Gm 355333

Fm 133111

Bb 113331

 

 

B10 : one tone bend

sb 10 : a half tone bend

8(b/4) : a quarter tone bend

10/\/\ : Vibrato with left hand

(Vib) : vibrato with whammie bar

 



Retour