Jean-Jacques Goldman: Puisque tu pars



Fichier MIDI
 
-------------3-2-2-0-0---------0-------------3-2-2-0-0-------
-------------------------3-3-0---------------------------3-3-
-0--0--0--0--0---0-----0---0-----0--0--0--0--0---0-----0---0-
-0--0--0--0--0---0-----0---0-----0--0--0--0--0---0-----0---0-
-0--0--0--0--0---0-----0---0-----0--0--0--0--0---0-----0---0-
-------------------------------------------------------------
 
 
-----------------7-5-5-3-3---------3---------0-2-5-3-3-2-2---
-0---------------8-7-7-5-5---3-3-0-5-------------3-0-0-------
---2----0--0--0--------------4-4-0-2-------------------2-2---
-----0--0--0--0----------------------------2-----------------
-----0--0--0--0--0---0-----0---0-----0-0-0---0---0---0-----0-
-------------------------------------------------------------
 
 
---------------------------3---2-----0-----------0-2-3-7-5-3-
-3-3---------------0---3-0-------3-0-------------------------
-0-0-4-2-------------0---------------------------------------
-----4-2--2--2--2------------------------------2-------------
---0------0--0--0--0---0-----0---0-----0--0--0---0---0---0---
-------1-----------------------------------------------------
 
A7
-2-------2-0-------------------------------------------------
-----3-3-0---------------------------------------------------
-----------0--0--0--0--0--0--0--0----------------------------
-----------0--0--0--0--0--0--0--2----------------------------
---0---0---0--0--0--0--0--0--0--4----------------------------
-------------------------------------------------------------
 
D D7M
2--------2-----2------2--------------------------------------
3--------3-----3------3--------------------------------------
2--------2-----2------2--------------------------------------
0---------------------4--------------------------------------
-------------------------------------------------------------
-------------------------------------------------------------
Puisque l'ombre gagne

 
Bm D
----------2-----2-----2------2-------------------------------
----------3-----3-----3------3-------------------------------
----------4-----4-----4------2-------------------------------
----------4-----4-----4------0-------------------------------
-------------------------------------------------------------
-------------------------------------------------------------
Puisqu'il n'est pas de montagne

 
G Bm Em Em7
-----3------3-----------3---------2-------0-----0-----0-0----
-----0------0-----------0---------3-------0-----0-----0-0----
-----0------0-----------0---------4-------0-----0-----0-0----
-----0----------------------------4-------------------2-0----
-----2-------------------------------------------------------
-----3------------------------------------0------------------
Au-dela des vents
plus haute que les marches de l'oubli
 
A A7
-------------------------------------------------------------
2---------2------2-----2-------------------------------------
2---------2------2-----2-------------------------------------
2---------2------2-----2-------------------------------------
0------------------------------------------------------------
-----------------3-------------------------------------------
Puisqu'il faut apprendre
 
 
 
D G
----2----2--------3-------3----------------------------------
----3----3--------0-------0----------------------------------
----2----2--------0-------0----------------------------------
------------------0-------0----------------------------------
------------------2-------2----------------------------------
----2-------------3-------2----------------------------------
A defaut de le comprendre
 

Em Em7 Asus4 A7
--0-----0-----0-------0-----3------3-------0-----------------
--0-----0-----0-------0-----3------3-------2-----------------
--0-----0-----0-------0-----0------0-------0---------0-------
--------2-----0-------0-----0------------------2--4----------
-----------------------------------------------4-------------
--0----------------------------------------------------------
A rever nos desirs et vivre des ainsi-soit-il
 

D D7M
2------2------2-----2----------------------------------------
3------3------3-----3----------------------------------------
2------2------2-----2----------------------------------------
0-------------------4----------------------------------------
-------------------------------------------------------------
-------------------------------------------------------------
Et puisque tu penses
 
Bm D
 
------2-----2-----2----2-------------------------------------
------3-----3-----3----3-------------------------------------
------4-----4-----4----2-------------------------------------
------4-----4-----4----0-------------------------------------
-------------------------------------------------------------
-------------------------------------------------------------
Comme une intime evidence
 
 
G Bm Em Em7
 
3--3---3----2-----------0---------0---------0-----0----------
0--0---0----3-----------0---------0---------0-----0----------
0--0---0----4-----------0---------0---------0-----0----------
0--0---0----4-------------------------------2-----0----------
2--2---2-----------------------------------------------------
3--3---3----------------0------------------------------------
Que parfois tout donner n'est pas forcement suffire
 
 
 
A A7
 
-------------------------------------------------------------
2-------2-----2----2-----------------------------------------
2-------2-----2----2-----------------------------------------
2-------2-----2----2-----------------------------------------
0------------------------------------------------------------
--------------3----------------------------------------------
Puisque c'est ailleurs
 
 
D G
 
----2--------2----------3-----3------------------------------
----3--------3----------0-----0------------------------------
----2--------2----------0-----0------------------------------
------------------------0-----0------------------------------
------------------------2-----2------------------------------
----2-------------------2-----2------------------------------
Qu'ira mieux battre ton coeur
 
 
 
Em Em7 Asus4
 
---0-------0--------0---------0-------0-----0----------------
---0-------0--------0---------0-------3-----3----------------
---0-------0--------0---------0-------0-----0----------------
--------------------0-----------------2----------------------
--------------------------------------0----------------------
---0---------------------------------------------------------
Et puisque nous t'aimons trop pour te retenir
 
 
A7 D D7M Bm D G Bm
 
0------------2--2--2-----0-------------------------------3-2-
2------------3--3--3--------2--3---------3-2-2-0-0-----3-0---
0------------2--2--2--2--------4--4--4-------0-----0-0-------
2------------0-----------------4--4--4-4-----0-----0-0-------
0---4--------------------4-----2--2--2---0-------------------
---------------------------------------------3-----3-3---2---
Puisque tu pars
 
 
Em G13
 
-2-0-0-----0-0-----------------------------------------------
-0-----0-----0-3---------------------------------------------
-0-----0-0-----0---------------------------------------------
---------3-----3---------------------------------------------
-------------------------------------------------------------
-0-------3---3-----------------------------------------------
 

C C7 Am
-0------0--------0-----0-------0---------0-------0-----------
-1------1--------1-----1-------1---------1-------1-----------
-0------0--------0-----0-------2---------2-------2-----------
-------------------------------------------------------------
-3---------------------2-------0-----------------------------
-------------------------------------------------------------
Que les vents te menent ou d'autres ames plus belles
 

 
Am7 F Am Dm
 
0-------1-------1---------1--------0--------1----------------
1-------1-------1---------1--------1--------3----------------
2-------2-------2---------2--------2--------2----------------
--------------------------------------------0----------------
-------------------------------------------------------------
3-------1--------------------------0-------------------------
Sauront t'aimer mieux que nous puisque l'on ne peut
 
 
 
Dm7
 
1-------1---1------------------------------------------------
3-------3---3------------------------------------------------
2-------2---2------------------------------------------------
-------------------------------------------------------------
------------3------------------------------------------------
-------------------------------------------------------------
T'aimer plus
 
 
 
G G7
 
-------------------------------------------------------------
0------0-------0-----0---------------------------------------
0------0-------0-----0---------------------------------------
0------0-------0-----0---------------------------------------
-------------------------------------------------------------
3--------------1---------------------------------------------
Que la vie t'apprenne
 
 
 
La suite n'est plus en tab j'espère que cela ne vous posera pas trop de problèmes ; la rythmique ne varie pas beaucoup de toute manière.

G             G7
Que la vie t'apprenne
C            F
Mais que tu restes le même
Dm        Dm7
Si tu te trahissais nous t'aurions
Gsus4       G7
Tout à fait perdu

Tu reprends alors les accords du couplet
puis

Gsus4            G7
Une empreinte indélébile
C Am F F/G

Nouvelle reprise

Gsus4        G7
Revenir mais pas trop
C            C7M
tard
Am / Am7 / F / Am / Dm / G7 (solo)
Dans ton histoire

(1)

C          C7M
Garde en mémoire
Am        Am7
Notre au revoir
F         Am
Puisque tu pars
Dm       G7
dans ton histoire

Reprise ad libitum depuis (1)

 



Retour...