Je commence demain

Jean-Jacques Goldman


Tonalite : E.
Quatre tirets font une croche.

Extrait sonore : riff intro
Extrait sonore : couplet

Em
|       |       |       |
|------------0-------------------|
|---2s3------2-------------------|
|---3s4--2---2------0h2p0--------|
|------------2-----------0---2---|
|--------------------------2-----|
|0---------------0---------------|
faudraitque

Repeter 4 fois ce riff pour l'intro
puis

Em7
|       |       |       |
|--------------------------------|
|--------------------------------|
|--------------------------------|
|2-------------------------------|
|2---2---4---4---5---5---4---4---|
|0-------0-------0-------0-------|
j'meclo-ture    faudraitque

Repeter 4 fois ce second riff. Ensuite


A7
|       |       |       |
|--------------------------------|
|--------------------------------|
|2-------4---4---5---5---4---4---|
|2---2---0-------0-------0-------|
|0-------------------------------|
|--------------------------------|
j'devienneplussage  que j'soisplus

Repeter deux fois ce troisieme riff
reprendre deux fois le premier

G6					    A7
|       |       |       |        |       |       |       |
|--------------------------------|--------------------------------|
|--------------------------------|--------------------------------|
|--------------------------------|2-------4---4---5---5---4---4---|
|0---0---0---2---0---0---0---2---|2---2---0-------0-------0-------|
|2-------2-------2-------2---2---|0-------------------------------|
|3-------3-------3-------3-------|--------------------------------|
bien    j'saisbien------    j'saisbien----

A
|       |       |       |
|--------------------------------|
|--------------------------------|
|2-------------------------------|
|2-------------------------------|
|0-------------------------------|
|--------------------------------|
je  com-men------ce-de -main

Et on recommence tout
dans cet ordre :
2 fois le riff 1
4 fois le riff 2
2 fois le riff 3
2 fois le riff 1
1 fois ce dernier riff
2 fois le riff 1 puis

Em7                              Em7
|       |       |       |        |       |       |       |
|--------------------------------|--------------------------------|
|--------------------------------|--------------------------------|
|--------------------------------|----------------------------3s4-|
|--------------------------------|--------------------------------|
|2-------------------------------|--------------------------------|
|0-------------------------------|--------------------------------|
je  t'oublie    faudrait-que     je  t'oublie     faudraitque
Em7                               Em7
|       |       |       |         |       |       |       |
|--------------------------------||3-------------------------------|
|3-------------------------------||3-------------------------------|
|--------------------------------||4-------------------------------|
|--------------------------------||--------------------------------|
|--------------------------------||--------------------------------|
|0-----------0---0---0---0---0---||0---0---0---0---0---0---0---0---|
je  t'oublie    faudrait-que     je t'oublie


Continuer avec :
Riff 1
Riff 4
et le final :

Em                      E
|       |       |       |
|------------0---------------0---|
|---2s3------2---------------0---|
|---3s4--2---2------0h2p0----1---|
|------------2-----------0---2---|
|--------------------------2-----|
|0---------------0---------------|

----------------------------------------------------------------------------
BRUNOT Pascal             17 ans	  e-mail : brunot.pascal@wanadoo.fr
24120 Terrasson                  =>> http://perso.wanadoo.fr/pascal.brunot/
J'ai vu de la lumiere et je vous ai trouves... Bonne idee
JJG
----------------------------------------------------------------------------